  0
SECTION
  2
HEADER
  9
$ACADVER
  1
AC1018
  9
$ACADMAINTVER
 70
     0
  9
$DWGCODEPAGE
  3
ANSI_1252
  9
$INSBASE
 10
0.0
 20
0.0
 30
0.0
  9
$EXTMIN
 10
2859.854629716735
 20
-591.6309017694346
 30
-0.000000000010068
  9
$EXTMAX
 10
3212.742011724652
 20
-203.5839955232696
 30
0.0000000000019897
  9
$LIMMIN
 10
0.0
 20
0.0
  9
$LIMMAX
 10
12.0
 20
9.0
  9
$ORTHOMODE
 70
     0
  9
$REGENMODE
 70
     1
  9
$FILLMODE
 70
     1
  9
$QTEXTMODE
 70
     0
  9
$MIRRTEXT
 70
     1
  9
$LTSCALE
 40
1.0
  9
$ATTMODE
 70
     1
  9
$TEXTSIZE
 40
0.2
  9
$TRACEWID
 40
0.05
  9
$TEXTSTYLE
  7
Standard
  9
$CLAYER
  8
0
  9
$CELTYPE
  6
ByLayer
  9
$CECOLOR
 62
   256
  9
$CELTSCALE
 40
1.0
  9
$DISPSILH
 70
     0
  9
$DIMSCALE
 40
1.0
  9
$DIMASZ
 40
0.18
  9
$DIMEXO
 40
0.0625
  9
$DIMDLI
 40
0.38
  9
$DIMRND
 40
0.0
  9
$DIMDLE
 40
0.0
  9
$DIMEXE
 40
0.18
  9
$DIMTP
 40
0.0
  9
$DIMTM
 40
0.0
  9
$DIMTXT
 40
0.18
  9
$DIMCEN
 40
0.09
  9
$DIMTSZ
 40
0.0
  9
$DIMTOL
 70
     0
  9
$DIMLIM
 70
     0
  9
$DIMTIH
 70
     1
  9
$DIMTOH
 70
     1
  9
$DIMSE1
 70
     0
  9
$DIMSE2
 70
     0
  9
$DIMTAD
 70
     0
  9
$DIMZIN
 70
     0
  9
$DIMBLK
  1

  9
$DIMASO
 70
     1
  9
$DIMSHO
 70
     1
  9
$DIMPOST
  1

  9
$DIMAPOST
  1

  9
$DIMALT
 70
     0
  9
$DIMALTD
 70
     2
  9
$DIMALTF
 40
25.4
  9
$DIMLFAC
 40
1.0
  9
$DIMTOFL
 70
     0
  9
$DIMTVP
 40
0.0
  9
$DIMTIX
 70
     0
  9
$DIMSOXD
 70
     0
  9
$DIMSAH
 70
     0
  9
$DIMBLK1
  1

  9
$DIMBLK2
  1

  9
$DIMSTYLE
  2
Standard
  9
$DIMCLRD
 70
     0
  9
$DIMCLRE
 70
     0
  9
$DIMCLRT
 70
     0
  9
$DIMTFAC
 40
1.0
  9
$DIMGAP
 40
0.09
  9
$DIMJUST
 70
     0
  9
$DIMSD1
 70
     0
  9
$DIMSD2
 70
     0
  9
$DIMTOLJ
 70
     1
  9
$DIMTZIN
 70
     0
  9
$DIMALTZ
 70
     0
  9
$DIMALTTZ
 70
     0
  9
$DIMUPT
 70
     0
  9
$DIMDEC
 70
     4
  9
$DIMTDEC
 70
     4
  9
$DIMALTU
 70
     2
  9
$DIMALTTD
 70
     2
  9
$DIMTXSTY
  7
Standard
  9
$DIMAUNIT
 70
     0
  9
$DIMADEC
 70
     0
  9
$DIMALTRND
 40
0.0
  9
$DIMAZIN
 70
     0
  9
$DIMDSEP
 70
    46
  9
$DIMATFIT
 70
     3
  9
$DIMFRAC
 70
     0
  9
$DIMLDRBLK
  1

  9
$DIMLUNIT
 70
     2
  9
$DIMLWD
 70
    -2
  9
$DIMLWE
 70
    -2
  9
$DIMTMOVE
 70
     2
  9
$LUNITS
 70
     2
  9
$LUPREC
 70
     3
  9
$SKETCHINC
 40
0.1
  9
$FILLETRAD
 40
0.5
  9
$AUNITS
 70
     0
  9
$AUPREC
 70
     0
  9
$MENU
  1
.
  9
$ELEVATION
 40
0.0
  9
$PELEVATION
 40
0.0
  9
$THICKNESS
 40
0.0
  9
$LIMCHECK
 70
     0
  9
$CHAMFERA
 40
0.0
  9
$CHAMFERB
 40
0.0
  9
$CHAMFERC
 40
0.0
  9
$CHAMFERD
 40
0.0
  9
$SKPOLY
 70
     0
  9
$TDCREATE
 40
2456863.551754826
  9
$TDUCREATE
 40
2456863.468421493
  9
$TDUPDATE
 40
2456863.551779803
  9
$TDUUPDATE
 40
2456863.46844647
  9
$TDINDWG
 40
0.0000000116
  9
$TDUSRTIMER
 40
0.0000000116
  9
$USRTIMER
 70
     1
  9
$ANGBASE
 50
0.0
  9
$ANGDIR
 70
     0
  9
$PDMODE
 70
     0
  9
$PDSIZE
 40
0.0
  9
$PLINEWID
 40
0.0
  9
$SPLFRAME
 70
     0
  9
$SPLINETYPE
 70
     6
  9
$SPLINESEGS
 70
     8
  9
$HANDSEED
  5
259
  9
$SURFTAB1
 70
     6
  9
$SURFTAB2
 70
     6
  9
$SURFTYPE
 70
     6
  9
$SURFU
 70
     6
  9
$SURFV
 70
     6
  9
$UCSBASE
  2

  9
$UCSNAME
  2

  9
$UCSORG
 10
0.0
 20
0.0
 30
0.0
  9
$UCSXDIR
 10
1.0
 20
0.0
 30
0.0
  9
$UCSYDIR
 10
0.0
 20
1.0
 30
0.0
  9
$UCSORTHOREF
  2

  9
$UCSORTHOVIEW
 70
     0
  9
$UCSORGTOP
 10
0.0
 20
0.0
 30
0.0
  9
$UCSORGBOTTOM
 10
0.0
 20
0.0
 30
0.0
  9
$UCSORGLEFT
 10
0.0
 20
0.0
 30
0.0
  9
$UCSORGRIGHT
 10
0.0
 20
0.0
 30
0.0
  9
$UCSORGFRONT
 10
0.0
 20
0.0
 30
0.0
  9
$UCSORGBACK
 10
0.0
 20
0.0
 30
0.0
  9
$PUCSBASE
  2

  9
$PUCSNAME
  2

  9
$PUCSORG
 10
0.0
 20
0.0
 30
0.0
  9
$PUCSXDIR
 10
1.0
 20
0.0
 30
0.0
  9
$PUCSYDIR
 10
0.0
 20
1.0
 30
0.0
  9
$PUCSORTHOREF
  2

  9
$PUCSORTHOVIEW
 70
     0
  9
$PUCSORGTOP
 10
0.0
 20
0.0
 30
0.0
  9
$PUCSORGBOTTOM
 10
0.0
 20
0.0
 30
0.0
  9
$PUCSORGLEFT
 10
0.0
 20
0.0
 30
0.0
  9
$PUCSORGRIGHT
 10
0.0
 20
0.0
 30
0.0
  9
$PUCSORGFRONT
 10
0.0
 20
0.0
 30
0.0
  9
$PUCSORGBACK
 10
0.0
 20
0.0
 30
0.0
  9
$USERI1
 70
     0
  9
$USERI2
 70
     0
  9
$USERI3
 70
     0
  9
$USERI4
 70
     0
  9
$USERI5
 70
     0
  9
$USERR1
 40
0.0
  9
$USERR2
 40
0.0
  9
$USERR3
 40
0.0
  9
$USERR4
 40
0.0
  9
$USERR5
 40
0.0
  9
$WORLDVIEW
 70
     1
  9
$SHADEDGE
 70
     3
  9
$SHADEDIF
 70
    70
  9
$TILEMODE
 70
     1
  9
$MAXACTVP
 70
    64
  9
$PINSBASE
 10
0.0
 20
0.0
 30
0.0
  9
$PLIMCHECK
 70
     0
  9
$PEXTMIN
 10
1.000000000000000E+20
 20
1.000000000000000E+20
 30
1.000000000000000E+20
  9
$PEXTMAX
 10
-1.000000000000000E+20
 20
-1.000000000000000E+20
 30
-1.000000000000000E+20
  9
$PLIMMIN
 10
0.0
 20
0.0
  9
$PLIMMAX
 10
12.0
 20
9.0
  9
$UNITMODE
 70
     0
  9
$VISRETAIN
 70
     1
  9
$PLINEGEN
 70
     0
  9
$PSLTSCALE
 70
     1
  9
$TREEDEPTH
 70
  3020
  9
$CMLSTYLE
  2
Standard
  9
$CMLJUST
 70
     0
  9
$CMLSCALE
 40
1.0
  9
$PROXYGRAPHICS
 70
     1
  9
$MEASUREMENT
 70
     0
  9
$CELWEIGHT
370
    -1
  9
$ENDCAPS
280
     0
  9
$JOINSTYLE
280
     0
  9
$LWDISPLAY
290
     0
  9
$INSUNITS
 70
     4
  9
$HYPERLINKBASE
  1

  9
$STYLESHEET
  1

  9
$XEDIT
290
     1
  9
$CEPSNTYPE
380
     0
  9
$PSTYLEMODE
290
     1
  9
$FINGERPRINTGUID
  2
{1953190F-AAAF-4FE9-850E-B3B92F7552CC}
  9
$VERSIONGUID
  2
{FAEB1C32-E019-11D5-929B-00C0DF256EC4}
  9
$EXTNAMES
290
     1
  9
$PSVPSCALE
 40
0.0
  9
$OLESTARTUP
290
     0
  9
$SORTENTS
280
   127
  9
$INDEXCTL
280
     0
  9
$HIDETEXT
280
     1
  9
$XCLIPFRAME
290
     0
  9
$HALOGAP
280
     0
  9
$OBSCOLOR
 70
   257
  9
$OBSLTYPE
280
     0
  9
$INTERSECTIONDISPLAY
280
     0
  9
$INTERSECTIONCOLOR
 70
   257
  9
$DIMASSOC
280
     2
  9
$PROJECTNAME
  1

  0
ENDSEC
  0
SECTION
  2
CLASSES
  0
CLASS
  1
ACDBDICTIONARYWDFLT
  2
AcDbDictionaryWithDefault
  3
ObjectDBX Classes
 90
        0
 91
        4
280
     0
281
     0
  0
CLASS
  1
VISUALSTYLE
  2
AcDbVisualStyle
  3
ObjectDBX Classes
 90
     4095
 91
        4
280
     0
281
     0
  0
CLASS
  1
MATERIAL
  2
AcDbMaterial
  3
ObjectDBX Classes
 90
     1153
 91
        4
280
     0
281
     0
  0
CLASS
  1
SCALE
  2
AcDbScale
  3
ObjectDBX Classes
 90
     1153
 91
        4
280
     0
281
     0
  0
CLASS
  1
SUN
  2
AcDbSun
  3
SCENEOE
 90
     1153
 91
        4
280
     0
281
     0
  0
CLASS
  1
DICTIONARYVAR
  2
AcDbDictionaryVar
  3
ObjectDBX Classes
 90
        0
 91
        4
280
     0
281
     0
  0
ENDSEC
  0
SECTION
  2
TABLES
  0
TABLE
  2
VPORT
  5
8
330
0
100
AcDbSymbolTable
 70
     1
  0
VPORT
  5
29
330
8
100
AcDbSymbolTableRecord
100
AcDbViewportTableRecord
  2
*Active
 70
     0
 10
0.0
 20
0.0
 11
1.0
 21
1.0
 12
3036.298320720693
 22
-397.6074486463521
 13
0.0
 23
0.0
 14
0.5
 24
0.5
 15
0.5
 25
0.5
 16
0.0
 26
0.0
 36
1.0
 17
0.0
 27
0.0
 37
0.0
 40
395.8078443710882
 41
0.9093936231102336
 42
50.0
 43
0.0
 44
0.0
 50
0.0
 51
0.0
 71
     0
 72
   100
 73
     1
 74
     3
 75
     0
 76
     0
 77
     0
 78
     0
281
     0
 65
     1
110
0.0
120
0.0
130
0.0
111
1.0
121
0.0
131
0.0
112
0.0
122
1.0
132
0.0
 79
     0
146
0.0
  0
ENDTAB
  0
TABLE
  2
LTYPE
  5
5
330
0
100
AcDbSymbolTable
 70
     1
  0
LTYPE
  5
14
330
5
100
AcDbSymbolTableRecord
100
AcDbLinetypeTableRecord
  2
ByBlock
 70
     0
  3

 72
    65
 73
     0
 40
0.0
  0
LTYPE
  5
15
330
5
100
AcDbSymbolTableRecord
100
AcDbLinetypeTableRecord
  2
ByLayer
 70
     0
  3

 72
    65
 73
     0
 40
0.0
  0
LTYPE
  5
16
330
5
100
AcDbSymbolTableRecord
100
AcDbLinetypeTableRecord
  2
Continuous
 70
     0
  3
Solid line
 72
    65
 73
     0
 40
0.0
  0
ENDTAB
  0
TABLE
  2
LAYER
  5
2
330
0
100
AcDbSymbolTable
 70
     5
  0
LAYER
  5
10
330
2
100
AcDbSymbolTableRecord
100
AcDbLayerTableRecord
  2
0
 70
     0
 62
     7
  6
Continuous
370
    -3
390
F
  0
LAYER
  5
6A
330
2
100
AcDbSymbolTableRecord
100
AcDbLayerTableRecord
  2
taglio n°3
 70
     0
 62
    18
420
        0
  6
Continuous
370
    -3
390
F
  0
LAYER
  5
98
330
2
100
AcDbSymbolTableRecord
100
AcDbLayerTableRecord
  2
taglio n°1
 70
     0
 62
     6
420
 16711935
  6
Continuous
370
    -3
390
F
  0
LAYER
  5
E0
330
2
100
AcDbSymbolTableRecord
100
AcDbLayerTableRecord
  2
incisione
 70
     0
 62
     3
420
    65280
  6
Continuous
370
    -3
390
F
  0
LAYER
  5
1F4
330
2
100
AcDbSymbolTableRecord
100
AcDbLayerTableRecord
  2
taglio n°2
 70
     0
 62
     1
420
 16711680
  6
Continuous
370
    -3
390
F
  0
ENDTAB
  0
TABLE
  2
STYLE
  5
3
330
0
100
AcDbSymbolTable
 70
     1
  0
STYLE
  5
11
330
3
100
AcDbSymbolTableRecord
100
AcDbTextStyleTableRecord
  2
Standard
 70
     0
 40
0.0
 41
1.0
 50
0.0
 71
     0
 42
0.2
  3
txt
  4

  0
ENDTAB
  0
TABLE
  2
VIEW
  5
6
330
0
100
AcDbSymbolTable
 70
     0
  0
ENDTAB
  0
TABLE
  2
UCS
  5
7
330
0
100
AcDbSymbolTable
 70
     0
  0
ENDTAB
  0
TABLE
  2
APPID
  5
9
330
0
100
AcDbSymbolTable
 70
     1
  0
APPID
  5
12
330
9
100
AcDbSymbolTableRecord
100
AcDbRegAppTableRecord
  2
ACAD
 70
     0
  0
ENDTAB
  0
TABLE
  2
DIMSTYLE
  5
A
330
0
100
AcDbSymbolTable
 70
     1
100
AcDbDimStyleTable
  0
DIMSTYLE
105
27
330
A
100
AcDbSymbolTableRecord
100
AcDbDimStyleTableRecord
  2
Standard
 70
     0
178
     0
340
11
  0
ENDTAB
  0
TABLE
  2
BLOCK_RECORD
  5
1
330
0
100
AcDbSymbolTable
 70
     1
  0
BLOCK_RECORD
  5
1F
330
1
100
AcDbSymbolTableRecord
100
AcDbBlockTableRecord
  2
*Model_Space
340
22
  0
BLOCK_RECORD
  5
1B
330
1
100
AcDbSymbolTableRecord
100
AcDbBlockTableRecord
  2
*Paper_Space
340
1E
  0
BLOCK_RECORD
  5
23
330
1
100
AcDbSymbolTableRecord
100
AcDbBlockTableRecord
  2
*Paper_Space0
340
26
  0
ENDTAB
  0
ENDSEC
  0
SECTION
  2
BLOCKS
  0
BLOCK
  5
20
330
1F
100
AcDbEntity
  8
0
100
AcDbBlockBegin
  2
*Model_Space
 70
     0
 10
0.0
 20
0.0
 30
0.0
  3
*Model_Space
  1
*Model_Space
  0
ENDBLK
  5
21
330
1F
100
AcDbEntity
  8
0
100
AcDbBlockEnd
  0
BLOCK
  5
1C
330
1B
100
AcDbEntity
 67
     1
  8
0
100
AcDbBlockBegin
  2
*Paper_Space
 70
     0
 10
0.0
 20
0.0
 30
0.0
  3
*Paper_Space
  1
*Paper_Space
  0
ENDBLK
  5
1D
330
1B
100
AcDbEntity
 67
     1
  8
0
100
AcDbBlockEnd
  0
BLOCK
  5
24
330
23
100
AcDbEntity
  8
0
100
AcDbBlockBegin
  2
*Paper_Space0
 70
     0
 10
0.0
 20
0.0
 30
0.0
  3
*Paper_Space0
  1
*Paper_Space0
  0
ENDBLK
  5
25
330
23
100
AcDbEntity
  8
0
100
AcDbBlockEnd
  0
ENDSEC
  0
SECTION
  2
ENTITIES
  0
LINE
  5
6B
330
1F
100
AcDbEntity
  8
taglio n°3
100
AcDbLine
 10
3046.368419452718
 20
-587.6309017694346
 30
-0.000000000003279
 11
3028.842386340868
 21
-587.6309017694346
 31
-0.0000000000038126
  0
LINE
  5
6C
330
1F
100
AcDbEntity
  8
taglio n°3
100
AcDbLine
 10
3028.842386340868
 20
-587.6309017694346
 30
-0.0000000000038126
 11
3028.842386340868
 21
-591.6309017694346
 31
-0.0000000000038141
  0
LINE
  5
6D
330
1F
100
AcDbEntity
  8
taglio n°3
100
AcDbLine
 10
3028.842386340868
 20
-591.6309017694346
 30
-0.0000000000038141
 11
3013.642386340869
 21
-591.6309017694346
 31
-0.0000000000038141
  0
LINE
  5
6E
330
1F
100
AcDbEntity
  8
taglio n°3
100
AcDbLine
 10
3013.642386340869
 20
-591.6309017694346
 30
-0.0000000000038141
 11
3013.642386340869
 21
-587.6309017694346
 31
-0.0000000000038141
  0
LINE
  5
6F
330
1F
100
AcDbEntity
  8
taglio n°3
100
AcDbLine
 10
3013.642386340869
 20
-587.6309017694346
 30
-0.0000000000038141
 11
3003.742386340869
 21
-587.6309017694346
 31
-0.0000000000038141
  0
LINE
  5
70
330
1F
100
AcDbEntity
  8
taglio n°3
100
AcDbLine
 10
3003.742386340869
 20
-587.6309017694346
 30
-0.0000000000038141
 11
2993.842386340868
 21
-587.6309017694346
 31
-0.0000000000038141
  0
LINE
  5
71
330
1F
100
AcDbEntity
  8
taglio n°3
100
AcDbLine
 10
2993.842386340868
 20
-587.6309017694346
 30
-0.0000000000038141
 11
2993.842386340868
 21
-591.6309017694346
 31
-0.0000000000038141
  0
LINE
  5
72
330
1F
100
AcDbEntity
  8
taglio n°3
100
AcDbLine
 10
2993.842386340868
 20
-591.6309017694346
 30
-0.0000000000038141
 11
2993.742386340869
 21
-591.6309017694346
 31
-0.0000000000038141
  0
LINE
  5
73
330
1F
100
AcDbEntity
  8
taglio n°3
100
AcDbLine
 10
2993.742386340869
 20
-591.6309017694346
 30
-0.0000000000038141
 11
2978.742386340869
 21
-591.6309017694346
 31
-0.0000000000060097
  0
LINE
  5
74
330
1F
100
AcDbEntity
  8
taglio n°3
100
AcDbLine
 10
2978.742386340869
 20
-591.6309017694346
 30
-0.0000000000060097
 11
2978.642386340869
 21
-591.6309017694346
 31
-0.0000000000060097
  0
LINE
  5
75
330
1F
100
AcDbEntity
  8
taglio n°3
100
AcDbLine
 10
2978.642386340869
 20
-591.6309017694346
 30
-0.0000000000060097
 11
2978.642386340869
 21
-587.6309017694346
 31
-0.0000000000049104
  0
LINE
  5
76
330
1F
100
AcDbEntity
  8
taglio n°3
100
AcDbLine
 10
2978.642386340869
 20
-587.6309017694346
 30
-0.0000000000049104
 11
2961.116353229019
 21
-587.6309017694346
 31
-0.0000000000032717
  0
LINE
  5
77
330
1F
100
AcDbEntity
  8
taglio n°3
100
AcDbLine
 10
2961.116353229019
 20
-587.6309017694346
 30
-0.0000000000032717
 11
2961.116353229019
 21
-517.6113393811597
 31
-0.0000000000035465
  0
LINE
  5
78
330
1F
100
AcDbEntity
  8
taglio n°3
100
AcDbLine
 10
2961.116353229019
 20
-517.6113393811597
 30
-0.0000000000035465
 11
2978.642386340869
 21
-517.6113393811597
 31
-0.0000000000049104
  0
LINE
  5
79
330
1F
100
AcDbEntity
  8
taglio n°3
100
AcDbLine
 10
2978.642386340869
 20
-517.6113393811597
 30
-0.0000000000049104
 11
2978.642386340869
 21
-513.6113393811597
 31
-0.0000000000060097
  0
LINE
  5
7A
330
1F
100
AcDbEntity
  8
taglio n°3
100
AcDbLine
 10
2978.642386340869
 20
-513.6113393811597
 30
-0.0000000000060097
 11
2978.742386340869
 21
-513.6113393811597
 31
-0.0000000000060097
  0
LINE
  5
7B
330
1F
100
AcDbEntity
  8
taglio n°3
100
AcDbLine
 10
2978.742386340869
 20
-513.6113393811597
 30
-0.0000000000060097
 11
2993.742386340869
 21
-513.6113393811597
 31
-0.0000000000038141
  0
LINE
  5
7C
330
1F
100
AcDbEntity
  8
taglio n°3
100
AcDbLine
 10
2993.742386340869
 20
-513.6113393811597
 30
-0.0000000000038141
 11
2993.842386340868
 21
-513.6113393811597
 31
-0.0000000000038141
  0
LINE
  5
7D
330
1F
100
AcDbEntity
  8
taglio n°3
100
AcDbLine
 10
2993.842386340868
 20
-513.6113393811597
 30
-0.0000000000038141
 11
2993.842386340868
 21
-517.6113393811597
 31
-0.0000000000038141
  0
LINE
  5
7E
330
1F
100
AcDbEntity
  8
taglio n°3
100
AcDbLine
 10
2993.842386340868
 20
-517.6113393811597
 30
-0.0000000000038141
 11
3003.742386340869
 21
-517.6113393811597
 31
-0.0000000000038141
  0
LINE
  5
7F
330
1F
100
AcDbEntity
  8
taglio n°3
100
AcDbLine
 10
3003.742386340869
 20
-517.6113393811597
 30
-0.0000000000038141
 11
3013.642386340869
 21
-517.6113393811597
 31
-0.0000000000038141
  0
LINE
  5
80
330
1F
100
AcDbEntity
  8
taglio n°3
100
AcDbLine
 10
3013.642386340869
 20
-517.6113393811597
 30
-0.0000000000038141
 11
3013.642386340869
 21
-513.6113393811597
 31
-0.0000000000038141
  0
LINE
  5
81
330
1F
100
AcDbEntity
  8
taglio n°3
100
AcDbLine
 10
3013.642386340869
 20
-513.6113393811597
 30
-0.0000000000038141
 11
3028.842386340868
 21
-513.6113393811597
 31
-0.0000000000038141
  0
LINE
  5
82
330
1F
100
AcDbEntity
  8
taglio n°3
100
AcDbLine
 10
3028.842386340868
 20
-513.6113393811597
 30
-0.0000000000038141
 11
3028.842386340868
 21
-517.6113393811597
 31
-0.0000000000038126
  0
LINE
  5
83
330
1F
100
AcDbEntity
  8
taglio n°3
100
AcDbLine
 10
3028.842386340868
 20
-517.6113393811597
 30
-0.0000000000038126
 11
3046.368419452718
 21
-517.6113393811597
 31
-0.000000000003279
  0
LINE
  5
84
330
1F
100
AcDbEntity
  8
taglio n°3
100
AcDbLine
 10
3046.368419452718
 20
-591.6113393811598
 30
-0.000000000003279
 11
3046.368419452718
 21
-513.6113393811598
 31
-0.000000000003279
  0
LINE
  5
85
330
1F
100
AcDbEntity
  8
taglio n°3
100
AcDbLine
 10
3046.368419452718
 20
-513.6113393811598
 30
-0.000000000003279
 11
3058.918419452718
 21
-513.6113393811597
 31
-0.0000000000032506
  0
LINE
  5
86
330
1F
100
AcDbEntity
  8
taglio n°3
100
AcDbLine
 10
3058.918419452718
 20
-513.6113393811597
 30
-0.0000000000032506
 11
3058.918419452718
 21
-517.6113393811596
 31
-0.0000000000032506
  0
LINE
  5
87
330
1F
100
AcDbEntity
  8
taglio n°3
100
AcDbLine
 10
3058.918419452718
 20
-517.6113393811596
 30
-0.0000000000032506
 11
3137.642011724652
 21
-517.6113393811597
 31
-0.0000000000032506
  0
LINE
  5
88
330
1F
100
AcDbEntity
  8
taglio n°3
100
AcDbLine
 10
3137.642011724652
 20
-517.6113393811597
 30
-0.0000000000032506
 11
3137.642011724652
 21
-513.6113393811597
 31
-0.0000000000032506
  0
LINE
  5
89
330
1F
100
AcDbEntity
  8
taglio n°3
100
AcDbLine
 10
3137.642011724652
 20
-513.6113393811597
 30
-0.0000000000032506
 11
3162.842011724652
 21
-513.6113393811597
 31
-0.0000000000032392
  0
LINE
  5
8A
330
1F
100
AcDbEntity
  8
taglio n°3
100
AcDbLine
 10
3162.842011724652
 20
-513.6113393811597
 30
-0.0000000000032392
 11
3162.842011724652
 21
-517.6113393811597
 31
-0.0000000000030034
  0
LINE
  5
8B
330
1F
100
AcDbEntity
  8
taglio n°3
100
AcDbLine
 10
3162.842011724652
 20
-517.6113393811597
 30
-0.0000000000030034
 11
3187.642011724652
 21
-517.6113393811597
 31
-0.0000000000028567
  0
LINE
  5
8C
330
1F
100
AcDbEntity
  8
taglio n°3
100
AcDbLine
 10
3187.642011724652
 20
-517.6113393811597
 30
-0.0000000000028567
 11
3187.642011724652
 21
-513.6113393811597
 31
-0.0000000000028569
  0
LINE
  5
8D
330
1F
100
AcDbEntity
  8
taglio n°3
100
AcDbLine
 10
3187.642011724652
 20
-513.6113393811597
 30
-0.0000000000028569
 11
3212.742011724652
 21
-513.6113393811597
 31
-0.0000000000032221
  0
LINE
  5
8E
330
1F
100
AcDbEntity
  8
taglio n°3
100
AcDbLine
 10
3212.742011724652
 20
-513.6113393811597
 30
-0.0000000000032221
 11
3212.742011724652
 21
-591.6309017694346
 31
0.0000000000019897
  0
LINE
  5
8F
330
1F
100
AcDbEntity
  8
taglio n°3
100
AcDbLine
 10
3212.742011724652
 20
-591.6309017694346
 30
0.0000000000019897
 11
3187.642011724652
 21
-591.6309017694346
 31
-0.0000000000028569
  0
LINE
  5
90
330
1F
100
AcDbEntity
  8
taglio n°3
100
AcDbLine
 10
3187.642011724652
 20
-591.6309017694346
 30
-0.0000000000028569
 11
3187.642011724652
 21
-587.6309017694346
 31
-0.0000000000028567
  0
LINE
  5
91
330
1F
100
AcDbEntity
  8
taglio n°3
100
AcDbLine
 10
3187.642011724652
 20
-587.6309017694346
 30
-0.0000000000028567
 11
3162.842011724652
 21
-587.6309017694346
 31
-0.0000000000030034
  0
LINE
  5
92
330
1F
100
AcDbEntity
  8
taglio n°3
100
AcDbLine
 10
3162.842011724652
 20
-587.6309017694346
 30
-0.0000000000030034
 11
3162.842011724652
 21
-591.6309017694346
 31
-0.0000000000032392
  0
LINE
  5
93
330
1F
100
AcDbEntity
  8
taglio n°3
100
AcDbLine
 10
3162.842011724652
 20
-591.6309017694346
 30
-0.0000000000032392
 11
3137.642011724652
 21
-591.6309017694346
 31
-0.0000000000032506
  0
LINE
  5
94
330
1F
100
AcDbEntity
  8
taglio n°3
100
AcDbLine
 10
3137.642011724652
 20
-591.6309017694346
 30
-0.0000000000032506
 11
3137.642011724652
 21
-587.6309017694344
 31
-0.0000000000032506
  0
LINE
  5
95
330
1F
100
AcDbEntity
  8
taglio n°3
100
AcDbLine
 10
3137.642011724652
 20
-587.6309017694344
 30
-0.0000000000032506
 11
3058.918419452718
 21
-587.6309017694346
 31
-0.0000000000032506
  0
LINE
  5
96
330
1F
100
AcDbEntity
  8
taglio n°3
100
AcDbLine
 10
3058.918419452718
 20
-587.6309017694346
 30
-0.0000000000032506
 11
3058.918419452718
 21
-591.6309017694346
 31
-0.0000000000032506
  0
LINE
  5
97
330
1F
100
AcDbEntity
  8
taglio n°3
100
AcDbLine
 10
3058.918419452718
 20
-591.6309017694346
 30
-0.0000000000032506
 11
3046.368419452718
 21
-591.6309017694344
 31
-0.000000000003279
  0
LINE
  5
99
330
1F
100
AcDbEntity
  8
taglio n°1
100
AcDbLine
 10
3180.270041867266
 20
-447.9634629133737
 30
0.0000000000006125
 11
3195.270041868514
 21
-439.3032088776912
 31
0.0000000000006125
  0
LINE
  5
9A
330
1F
100
AcDbEntity
  8
taglio n°1
100
AcDbLine
 10
3195.270041868514
 20
-439.3032088776912
 30
0.0000000000006125
 11
3180.270041869763
 21
-430.642954837685
 31
0.0000000000006125
  0
LINE
  5
9B
330
1F
100
AcDbEntity
  8
taglio n°1
100
AcDbLine
 10
3180.270041869763
 20
-430.642954837685
 30
0.0000000000006125
 11
3180.270041867266
 21
-447.9634629133737
 31
0.0000000000006125
  0
POLYLINE
  5
9C
330
1F
100
AcDbEntity
  8
taglio n°3
100
AcDb2dPolyline
 66
     1
 10
0.0
 20
0.0
 30
-0.0000000000000184
  0
VERTEX
  5
9D
330
9C
100
AcDbEntity
  8
taglio n°3
100
AcDbVertex
100
AcDb2dVertex
 10
3092.270041868514
 20
-474.9616145738381
 30
-0.0000000000000184
  0
VERTEX
  5
9E
330
9C
100
AcDbEntity
  8
taglio n°3
100
AcDbVertex
100
AcDb2dVertex
 10
3168.971820587168
 20
-474.9616145738391
 30
-0.0000000000000184
  0
SEQEND
  5
9F
330
9C
100
AcDbEntity
  8
taglio n°3
  0
ARC
  5
A0
330
1F
100
AcDbEntity
  8
taglio n°3
100
AcDbCircle
 10
3168.971820587167
 20
-466.9616145738391
 30
0.0000000000004262
 40
8.0
100
AcDbArc
 50
270.0000000000032
 51
288.4349488229211
  0
LINE
  5
A1
330
1F
100
AcDbEntity
  8
taglio n°3
100
AcDbLine
 10
3171.501642715302
 20
-474.5510809582432
 30
0.0000000000005943
 11
3194.799863996649
 21
-466.785007197794
 31
0.0000000000006251
  0
ARC
  5
A2
330
1F
100
AcDbEntity
  8
taglio n°3
100
AcDbCircle
 10
3192.270041868515
 20
-459.1955408133898
 30
0.0000000000006218
 40
8.0
100
AcDbArc
 50
288.4349488229211
 51
0.0
  0
LINE
  5
A3
330
1F
100
AcDbEntity
  8
taglio n°3
100
AcDbLine
 10
3200.270041868515
 20
-459.1955408133898
 30
0.0000000000006324
 11
3200.270041868515
 21
-419.4108769391101
 31
0.0000000000006324
  0
ARC
  5
A4
330
1F
100
AcDbEntity
  8
taglio n°3
100
AcDbCircle
 10
3192.270041868515
 20
-419.4108769391101
 30
0.0000000000004766
 40
8.0
100
AcDbArc
 50
0.0
 51
71.5650511770789
  0
LINE
  5
A5
330
1F
100
AcDbEntity
  8
taglio n°3
100
AcDbLine
 10
3194.799863996649
 20
-411.8214105547059
 30
0.0000000000005259
 11
3171.501642715303
 21
-404.0553367942568
 31
0.0000000000000722
  0
ARC
  5
A6
330
1F
100
AcDbEntity
  8
taglio n°3
100
AcDbCircle
 10
3168.971820587168
 20
-411.6448031786609
 30
0.0000000000005059
 40
8.0
100
AcDbArc
 50
71.56505117707877
 51
90.00000000000325
  0
LINE
  5
A7
330
1F
100
AcDbEntity
  8
taglio n°3
100
AcDbLine
 10
3168.971820587168
 20
-403.6448031786609
 30
0.0000000000000477
 11
3092.270041868515
 21
-403.6448031786608
 31
0.0000000000000184
  0
ARC
  5
A8
330
1F
100
AcDbEntity
  8
taglio n°1
100
AcDbCircle
 10
3036.016976234211
 20
-439.3023586020087
 30
0.0
 40
40.90850235137771
100
AcDbArc
 50
56.27734379683423
 51
68.02400396713757
  0
LINE
  5
A9
330
1F
100
AcDbEntity
  8
taglio n°1
100
AcDbLine
 10
3058.728286929175
 20
-405.2773394080467
 30
0.0
 11
3001.991957040283
 21
-462.0136692969445
 31
0.0
  0
ARC
  5
AA
330
1F
100
AcDbEntity
  8
taglio n°1
100
AcDbCircle
 10
3036.016976234222
 20
-439.3023586019879
 30
0.0
 40
40.90850235135431
100
AcDbArc
 50
201.9759960328646
 51
213.7226562031762
  0
LINE
  5
AB
330
1F
100
AcDbEntity
  8
taglio n°1
100
AcDbLine
 10
2998.080856456103
 20
-454.61106138214
 30
0.0
 11
3051.32567901437
 21
-401.3662388238683
 31
0.0
  0
LINE
  5
AC
330
1F
100
AcDbEntity
  8
taglio n°1
100
AcDbLine
 10
3031.410457724268
 20
-398.6540431160022
 30
0.0
 11
2995.368660748236
 21
-434.6958400920374
 31
0.0
  0
ARC
  5
AD
330
1F
100
AcDbEntity
  8
taglio n°1
100
AcDbCircle
 10
3036.01697623422
 20
-439.3023586019871
 30
0.0
 40
40.90850235135304
100
AcDbArc
 50
96.46552770830023
 51
173.5344722917031
  0
LINE
  5
AE
330
1F
100
AcDbEntity
  8
taglio n°1
100
AcDbLine
 10
3004.400482444357
 20
-465.261998142363
 30
0.0
 11
3061.976615774593
 21
-407.6858648121205
 31
0.0
  0
ARC
  5
AF
330
1F
100
AcDbEntity
  8
taglio n°1
100
AcDbCircle
 10
3036.016976234222
 20
-439.3023586019879
 30
0.0
 40
40.90850235135431
100
AcDbArc
 50
39.38869967064462
 51
50.61130032936122
  0
LINE
  5
B0
330
1F
100
AcDbEntity
  8
taglio n°1
100
AcDbLine
 10
3067.633470024086
 20
-413.3427190616127
 30
0.0
 11
3010.05733669385
 21
-470.918852391855
 31
0.0
  0
ARC
  5
B1
330
1F
100
AcDbEntity
  8
taglio n°1
100
AcDbCircle
 10
3036.016976234219
 20
-439.3023586019908
 30
0.0
 40
40.90850235135075
100
AcDbArc
 50
219.3886996706434
 51
230.6113003293605
  0
LINE
  5
B2
330
1F
100
AcDbEntity
  8
taglio n°1
100
AcDbLine
 10
3040.623494744175
 20
-479.9506740879734
 30
0.0
 11
3076.665291720207
 21
-443.9088771119376
 31
0.0
  0
ARC
  5
B3
330
1F
100
AcDbEntity
  8
taglio n°1
100
AcDbCircle
 10
3036.016976234222
 20
-439.302358601988
 30
0.0
 40
40.90850235135395
100
AcDbArc
 50
276.465527708302
 51
353.5344722917031
  0
LINE
  5
B4
330
1F
100
AcDbEntity
  8
taglio n°3
100
AcDbLine
 10
2961.116353229019
 20
-587.61133938116
 30
-0.0000000000031285
 11
2945.656758510675
 21
-587.61133938116
 31
-0.0000000000032068
  0
LINE
  5
B5
330
1F
100
AcDbEntity
  8
taglio n°3
100
AcDbLine
 10
2945.656758510675
 20
-587.61133938116
 30
-0.0000000000032068
 11
2945.656758510675
 21
-591.61133938116
 31
-0.0000000000032083
  0
LINE
  5
B6
330
1F
100
AcDbEntity
  8
taglio n°3
100
AcDbLine
 10
2945.656758510675
 20
-591.61133938116
 30
-0.0000000000032083
 11
2930.456758510675
 21
-591.61133938116
 31
-0.0000000000032083
  0
LINE
  5
B7
330
1F
100
AcDbEntity
  8
taglio n°3
100
AcDbLine
 10
2930.456758510675
 20
-591.61133938116
 30
-0.0000000000032083
 11
2930.456758510675
 21
-587.61133938116
 31
-0.0000000000032083
  0
LINE
  5
B8
330
1F
100
AcDbEntity
  8
taglio n°3
100
AcDbLine
 10
2930.456758510675
 20
-587.61133938116
 30
-0.0000000000032083
 11
2920.556758510675
 21
-587.61133938116
 31
-0.0000000000032083
  0
LINE
  5
B9
330
1F
100
AcDbEntity
  8
taglio n°3
100
AcDbLine
 10
2920.556758510675
 20
-587.61133938116
 30
-0.0000000000032083
 11
2910.656758510675
 21
-587.61133938116
 31
-0.0000000000032083
  0
LINE
  5
BA
330
1F
100
AcDbEntity
  8
taglio n°3
100
AcDbLine
 10
2910.656758510675
 20
-587.61133938116
 30
-0.0000000000032083
 11
2910.656758510675
 21
-591.61133938116
 31
-0.0000000000032083
  0
LINE
  5
BB
330
1F
100
AcDbEntity
  8
taglio n°3
100
AcDbLine
 10
2910.656758510675
 20
-591.61133938116
 30
-0.0000000000032083
 11
2910.556758510675
 21
-591.61133938116
 31
-0.0000000000032083
  0
LINE
  5
BC
330
1F
100
AcDbEntity
  8
taglio n°3
100
AcDbLine
 10
2910.556758510675
 20
-591.61133938116
 30
-0.0000000000032083
 11
2895.556758510675
 21
-591.61133938116
 31
-0.0000000000054039
  0
LINE
  5
BD
330
1F
100
AcDbEntity
  8
taglio n°3
100
AcDbLine
 10
2895.556758510675
 20
-591.61133938116
 30
-0.0000000000054039
 11
2895.456758510675
 21
-591.61133938116
 31
-0.0000000000054039
  0
LINE
  5
BE
330
1F
100
AcDbEntity
  8
taglio n°3
100
AcDbLine
 10
2895.456758510675
 20
-591.61133938116
 30
-0.0000000000054039
 11
2895.456758510675
 21
-587.61133938116
 31
-0.0000000000043045
  0
LINE
  5
BF
330
1F
100
AcDbEntity
  8
taglio n°3
100
AcDbLine
 10
2895.456758510675
 20
-587.61133938116
 30
-0.0000000000043045
 11
2879.997163792331
 21
-587.6113393811601
 31
-0.0000000000032584
  0
LINE
  5
C0
330
1F
100
AcDbEntity
  8
taglio n°3
100
AcDbLine
 10
2879.997163792331
 20
-587.6113393811601
 30
-0.0000000000032584
 11
2879.997163792332
 21
-517.6113393811572
 31
-0.0000000000035511
  0
LINE
  5
C1
330
1F
100
AcDbEntity
  8
taglio n°3
100
AcDbLine
 10
2879.997163792332
 20
-517.6113393811572
 30
-0.0000000000035511
 11
2895.456758510676
 21
-517.6113393811578
 31
-0.0000000000043045
  0
LINE
  5
C2
330
1F
100
AcDbEntity
  8
taglio n°3
100
AcDbLine
 10
2895.456758510676
 20
-517.6113393811578
 30
-0.0000000000043045
 11
2895.456758510676
 21
-513.6113393811578
 31
-0.0000000000054039
  0
LINE
  5
C3
330
1F
100
AcDbEntity
  8
taglio n°3
100
AcDbLine
 10
2895.456758510676
 20
-513.6113393811578
 30
-0.0000000000054039
 11
2895.556758510676
 21
-513.6113393811578
 31
-0.0000000000054039
  0
LINE
  5
C4
330
1F
100
AcDbEntity
  8
taglio n°3
100
AcDbLine
 10
2895.556758510676
 20
-513.6113393811578
 30
-0.0000000000054039
 11
2910.556758510676
 21
-513.6113393811582
 31
-0.0000000000032083
  0
LINE
  5
C5
330
1F
100
AcDbEntity
  8
taglio n°3
100
AcDbLine
 10
2910.556758510676
 20
-513.6113393811582
 30
-0.0000000000032083
 11
2910.656758510676
 21
-513.6113393811582
 31
-0.0000000000032083
  0
LINE
  5
C6
330
1F
100
AcDbEntity
  8
taglio n°3
100
AcDbLine
 10
2910.656758510676
 20
-513.6113393811582
 30
-0.0000000000032083
 11
2910.656758510676
 21
-517.6113393811582
 31
-0.0000000000032083
  0
LINE
  5
C7
330
1F
100
AcDbEntity
  8
taglio n°3
100
AcDbLine
 10
2910.656758510676
 20
-517.6113393811582
 30
-0.0000000000032083
 11
2920.556758510676
 21
-517.6113393811585
 31
-0.0000000000032083
  0
LINE
  5
C8
330
1F
100
AcDbEntity
  8
taglio n°3
100
AcDbLine
 10
2920.556758510676
 20
-517.6113393811585
 30
-0.0000000000032083
 11
2930.456758510676
 21
-517.6113393811588
 31
-0.0000000000032083
  0
LINE
  5
C9
330
1F
100
AcDbEntity
  8
taglio n°3
100
AcDbLine
 10
2930.456758510676
 20
-517.6113393811588
 30
-0.0000000000032083
 11
2930.456758510676
 21
-513.6113393811588
 31
-0.0000000000032083
  0
LINE
  5
CA
330
1F
100
AcDbEntity
  8
taglio n°3
100
AcDbLine
 10
2930.456758510676
 20
-513.6113393811588
 30
-0.0000000000032083
 11
2945.656758510676
 21
-513.6113393811593
 31
-0.0000000000032083
  0
LINE
  5
CB
330
1F
100
AcDbEntity
  8
taglio n°3
100
AcDbLine
 10
2945.656758510676
 20
-513.6113393811593
 30
-0.0000000000032083
 11
2945.656758510676
 21
-517.6113393811593
 31
-0.0000000000032068
  0
LINE
  5
CC
330
1F
100
AcDbEntity
  8
taglio n°3
100
AcDbLine
 10
2945.656758510676
 20
-517.6113393811593
 30
-0.0000000000032068
 11
2961.116353229019
 21
-517.6113393811597
 31
-0.0000000000035465
  0
ARC
  5
CD
330
1F
100
AcDbEntity
  8
taglio n°1
100
AcDbCircle
 10
3036.016976234223
 20
-439.302358601984
 30
0.0
 40
40.90850235135043
100
AcDbArc
 50
74.26803957465323
 51
88.19270538197806
  0
LINE
  5
CE
330
1F
100
AcDbEntity
  8
taglio n°1
100
AcDbLine
 10
3047.108801502814
 20
-399.9262620859316
 30
0.0
 11
2996.640879718167
 21
-450.3941838705841
 31
0.0
  0
ARC
  5
CF
330
1F
100
AcDbEntity
  8
taglio n°1
100
AcDbCircle
 10
3036.016976234222
 20
-439.3023586019879
 30
0.0
 40
40.90850235135431
100
AcDbArc
 50
181.8072946180287
 51
195.7319604253516
  0
LINE
  5
D0
330
1F
100
AcDbEntity
  8
taglio n°1
100
AcDbLine
 10
2995.128823686407
 20
-440.5925314033583
 30
0.0
 11
3037.307149035589
 21
-398.4142060541731
 31
0.0
  0
ARC
  5
D1
330
1F
100
AcDbEntity
  8
taglio n°1
100
AcDbCircle
 10
3036.016976234243
 20
-439.3023586019837
 30
0.0
 40
40.90850235133315
100
AcDbArc
 50
1.807294618023339
 51
15.73196042535419
  0
LINE
  5
D2
330
1F
100
AcDbEntity
  8
taglio n°1
100
AcDbLine
 10
3076.905128782036
 20
-438.012185800617
 30
0.0
 11
3034.726803432855
 21
-480.1905111498025
 31
0.0
  0
ARC
  5
D3
330
1F
100
AcDbEntity
  8
taglio n°1
100
AcDbCircle
 10
3036.016976234222
 20
-439.3023586019879
 30
0.0
 40
40.90850235135431
100
AcDbArc
 50
254.2680395746534
 51
268.1927053819763
  0
LINE
  5
D4
330
1F
100
AcDbEntity
  8
taglio n°1
100
AcDbLine
 10
3024.925150965629
 20
-478.678455118044
 30
0.0
 11
3075.393072750277
 21
-428.2105333333914
 31
0.0
  0
LINE
  5
D5
330
1F
100
AcDbEntity
  8
taglio n°1
100
AcDbLine
 10
3013.305665539268
 20
-473.3273777959288
 30
0.0
 11
3070.041995428161
 21
-416.5910479070311
 31
0.0
  0
ARC
  5
D6
330
1F
100
AcDbEntity
  8
taglio n°1
100
AcDbCircle
 10
3036.016976234222
 20
-439.3023586019879
 30
0.0
 40
40.90850235135431
100
AcDbArc
 50
21.97599603286437
 51
33.72265620317506
  0
LINE
  5
D7
330
1F
100
AcDbEntity
  8
taglio n°1
100
AcDbLine
 10
3073.95309601234
 20
-423.9936558218359
 30
0.0
 11
3020.708273454074
 21
-477.2384783801076
 31
0.0
  0
ARC
  5
D8
330
1F
100
AcDbEntity
  8
taglio n°1
100
AcDbCircle
 10
3036.016976234196
 20
-439.3023586020363
 30
0.0
 40
40.90850235129962
100
AcDbArc
 50
236.2773437968225
 51
248.0240039671498
  0
ARC
  5
D9
330
1F
100
AcDbEntity
  8
taglio n°3
100
AcDbCircle
 10
2987.770041868515
 20
-481.3032088762494
 30
0.0
 40
8.0
100
AcDbArc
 50
179.9999999999996
 51
270.0
  0
LINE
  5
DA
330
1F
100
AcDbEntity
  8
taglio n°3
100
AcDbLine
 10
2987.770041868515
 20
-489.3032088762494
 30
0.0
 11
3084.270041868514
 21
-489.3032088762496
 31
0.0
  0
ARC
  5
DB
330
1F
100
AcDbEntity
  8
taglio n°3
100
AcDbCircle
 10
3084.270041868514
 20
-481.3032088762496
 30
0.0
 40
8.0
100
AcDbArc
 50
270.0
 51
0.0000000000004071
  0
LINE
  5
DC
330
1F
100
AcDbEntity
  8
taglio n°3
100
AcDbLine
 10
3092.270041868514
 20
-481.3032088762496
 30
0.0
 11
3092.270041868514
 21
-397.3032088762491
 31
0.0
  0
ARC
  5
DD
330
1F
100
AcDbEntity
  8
taglio n°3
100
AcDbCircle
 10
3084.270041868514
 20
-397.3032088762494
 30
0.0
 40
8.0
100
AcDbArc
 50
359.9999999999996
 51
90.0
  0
LINE
  5
DE
330
1F
100
AcDbEntity
  8
taglio n°3
100
AcDbLine
 10
3084.270041868514
 20
-389.3032088762494
 30
0.0
 11
2987.770041868516
 21
-389.3032088762494
 31
0.0
  0
ARC
  5
DF
330
1F
100
AcDbEntity
  8
taglio n°3
100
AcDbCircle
 10
2987.770041868515
 20
-397.3032088762494
 30
0.0
 40
8.0
100
AcDbArc
 50
89.99999999999675
 51
179.999999999998
  0
SPLINE
  5
E1
330
1F
100
AcDbEntity
  8
incisione
100
AcDbSpline
210
0.0
220
0.0
230
1.0
 70
    24
 71
     2
 72
     6
 73
     3
 74
     0
 42
0.000000001
 43
0.0000000001
 40
3.0
 40
3.0
 40
3.0
 40
4.0
 40
4.0
 40
4.0
 10
2918.849398624458
 20
-461.9039742793382
 30
0.0
 10
2919.726440673362
 20
-461.9039742793382
 30
0.0
 10
2920.603482722266
 20
-461.9039742793382
 30
0.0
  0
SPLINE
  5
E2
330
1F
100
AcDbEntity
  8
incisione
100
AcDbSpline
210
0.0
220
0.0
230
1.0
 70
    24
 71
     2
 72
     6
 73
     3
 74
     0
 42
0.000000001
 43
0.0000000001
 40
4.0
 40
4.0
 40
4.0
 40
5.0
 40
5.0
 40
5.0
 10
2920.603482722266
 20
-461.9039742793382
 30
0.0
 10
2920.603482722266
 20
-462.279351883411
 30
0.0
 10
2920.603482722266
 20
-462.6547294874838
 30
0.0
  0
SPLINE
  5
E3
330
1F
100
AcDbEntity
  8
incisione
100
AcDbSpline
210
0.0
220
0.0
230
1.0
 70
    24
 71
     2
 72
     6
 73
     3
 74
     0
 42
0.000000001
 43
0.0000000001
 40
5.0
 40
5.0
 40
5.0
 40
6.0
 40
6.0
 40
6.0
 10
2920.603482722266
 20
-462.6547294874838
 30
0.0
 10
2919.726440673362
 20
-462.6547294874838
 30
0.0
 10
2918.849398624458
 20
-462.6547294874838
 30
0.0
  0
SPLINE
  5
E4
330
1F
100
AcDbEntity
  8
incisione
100
AcDbSpline
210
0.0
220
0.0
230
1.0
 70
    24
 71
     2
 72
     6
 73
     3
 74
     0
 42
0.000000001
 43
0.0000000001
 40
6.0
 40
6.0
 40
6.0
 40
7.0
 40
7.0
 40
7.0
 10
2918.849398624458
 20
-462.6547294874838
 30
0.0
 10
2918.849398624458
 20
-462.279351883411
 30
0.0
 10
2918.849398624458
 20
-461.9039742793382
 30
0.0
  0
SPLINE
  5
E5
330
1F
100
AcDbEntity
  8
incisione
370
    35
100
AcDbSpline
210
0.0
220
0.0
230
1.0
 70
     8
 71
     3
 72
     8
 73
     4
 74
     0
 42
0.000000001
 43
0.0000000001
 40
0.0
 40
0.0
 40
0.0
 40
0.0
 40
1.0
 40
1.0
 40
1.0
 40
1.0
 10
2959.506069803194
 20
-443.281751790504
 30
0.0
 10
2959.506069803194
 20
-443.281751790504
 30
0.0
 10
2962.396504915319
 20
-436.1259439580916
 30
0.0
 10
2958.829108540343
 20
-436.0356824563781
 30
0.0
  0
SPLINE
  5
E6
330
1F
100
AcDbEntity
  8
incisione
370
    35
100
AcDbSpline
210
0.0
220
0.0
230
1.0
 70
     8
 71
     3
 72
     8
 73
     4
 74
     0
 42
0.000000001
 43
0.0000000001
 40
1.0
 40
1.0
 40
1.0
 40
1.0
 40
2.0
 40
2.0
 40
2.0
 40
2.0
 10
2958.829108540343
 20
-436.0356824563781
 30
0.0
 10
2955.261884420141
 20
-436.1259439580916
 30
0.0
 10
2958.15249178704
 20
-443.281751790504
 30
0.0
 10
2958.15249178704
 20
-443.281751790504
 30
0.0
  0
SPLINE
  5
E7
330
1F
100
AcDbEntity
  8
incisione
370
    35
100
AcDbSpline
210
0.0
220
0.0
230
1.0
 70
     8
 71
     3
 72
     8
 73
     4
 74
     0
 42
0.000000001
 43
0.0000000001
 40
0.0
 40
0.0
 40
0.0
 40
0.0
 40
1.0
 40
1.0
 40
1.0
 40
1.0
 10
2956.975819424053
 20
-445.3345119353903
 30
0.0
 10
2956.975819424053
 20
-445.3345119353903
 30
0.0
 10
2949.333564109123
 20
-446.4093817267881
 30
0.0
 10
2951.039403138645
 20
-449.5439018540428
 30
0.0
  0
SPLINE
  5
E8
330
1F
100
AcDbEntity
  8
incisione
370
    35
100
AcDbSpline
210
0.0
220
0.0
230
1.0
 70
     8
 71
     3
 72
     8
 73
     4
 74
     0
 42
0.000000001
 43
0.0000000001
 40
1.0
 40
1.0
 40
1.0
 40
1.0
 40
2.0
 40
2.0
 40
2.0
 40
2.0
 10
2951.039403138645
 20
-449.5439018540428
 30
0.0
 10
2952.900788229325
 20
-452.5878159700353
 30
0.0
 10
2957.652952941679
 20
-446.5068779290207
 30
0.0
 10
2957.652952941679
 20
-446.5068779290207
 30
0.0
  0
SPLINE
  5
E9
330
1F
100
AcDbEntity
  8
incisione
370
    35
100
AcDbSpline
210
0.0
220
0.0
230
1.0
 70
     8
 71
     3
 72
     8
 73
     4
 74
     0
 42
0.000000001
 43
0.0000000001
 40
0.0
 40
0.0
 40
0.0
 40
0.0
 40
1.0
 40
1.0
 40
1.0
 40
1.0
 10
2960.060041157223
 20
-446.5068779290207
 30
0.0
 10
2960.060041157223
 20
-446.5068779290207
 30
0.0
 10
2964.811861360028
 20
-452.5878159700353
 30
0.0
 10
2966.673590960257
 20
-449.5439018540428
 30
0.0
  0
SPLINE
  5
EA
330
1F
100
AcDbEntity
  8
incisione
370
    35
100
AcDbSpline
210
0.0
220
0.0
230
1.0
 70
     8
 71
     3
 72
     8
 73
     4
 74
     0
 42
0.000000001
 43
0.0000000001
 40
1.0
 40
1.0
 40
1.0
 40
1.0
 40
2.0
 40
2.0
 40
2.0
 40
2.0
 10
2966.673590960257
 20
-449.5439018540428
 30
0.0
 10
2968.378913225456
 20
-446.4093817267881
 30
0.0
 10
2960.736657910526
 20
-445.3345119353903
 30
0.0
 10
2960.736657910526
 20
-445.3345119353903
 30
0.0
  0
LINE
  5
EB
330
1F
100
AcDbEntity
  8
incisione
370
    35
100
AcDbLine
 10
2897.112527185136
 20
-451.5499809551036
 30
0.0
 11
2896.190964142831
 21
-452.3561332986521
 31
0.0
  0
LINE
  5
EC
330
1F
100
AcDbEntity
  8
incisione
370
    35
100
AcDbLine
 10
2896.190964142831
 20
-452.3561332986521
 30
0.0
 11
2895.190163904366
 21
-451.3470648310225
 31
0.0
  0
LINE
  5
ED
330
1F
100
AcDbEntity
  8
incisione
370
    35
100
AcDbLine
 10
2895.190163904366
 20
-451.3470648310225
 30
0.0
 11
2896.005962515273
 21
-450.4170613047793
 31
0.0
  0
LINE
  5
EE
330
1F
100
AcDbEntity
  8
incisione
370
    35
100
AcDbLine
 10
2896.005962515273
 20
-450.4170613047793
 30
0.0
 11
2895.359318092692
 21
-449.4479559447785
 31
0.0
  0
LINE
  5
EF
330
1F
100
AcDbEntity
  8
incisione
370
    35
100
AcDbLine
 10
2895.359318092692
 20
-449.4479559447785
 30
0.0
 11
2894.191086213644
 21
-449.8424193778396
 31
0.0
  0
LINE
  5
F0
330
1F
100
AcDbEntity
  8
incisione
370
    35
100
AcDbLine
 10
2894.191086213644
 20
-449.8424193778396
 30
0.0
 11
2893.656407394333
 21
-448.5489582779026
 31
0.0
  0
LINE
  5
F1
330
1F
100
AcDbEntity
  8
incisione
370
    35
100
AcDbLine
 10
2893.656407394333
 20
-448.5489582779026
 30
0.0
 11
2894.766072650132
 21
-448.002566133942
 31
0.0
  0
LINE
  5
F2
330
1F
100
AcDbEntity
  8
incisione
370
    35
100
AcDbLine
 10
2894.766072650132
 20
-448.002566133942
 30
0.0
 11
2894.539040857654
 21
-446.8598279614846
 31
0.0
  0
LINE
  5
F3
330
1F
100
AcDbEntity
  8
incisione
370
    35
100
AcDbLine
 10
2894.539040857654
 20
-446.8598279614846
 30
0.0
 11
2893.305352164386
 21
-446.7773179246128
 31
0.0
  0
LINE
  5
F4
330
1F
100
AcDbEntity
  8
incisione
370
    35
100
AcDbLine
 10
2893.305352164386
 20
-446.7773179246128
 30
0.0
 11
2893.308452750323
 21
-445.3529431962363
 31
0.0
  0
LINE
  5
F5
330
1F
100
AcDbEntity
  8
incisione
370
    35
100
AcDbLine
 10
2893.308452750323
 20
-445.3529431962363
 30
0.0
 11
2894.54937614411
 21
-445.2718111975587
 31
0.0
  0
LINE
  5
F6
330
1F
100
AcDbEntity
  8
incisione
370
    35
100
AcDbLine
 10
2894.54937614411
 20
-445.2718111975587
 30
0.0
 11
2894.777096955685
 21
-444.1290730251013
 31
0.0
  0
LINE
  5
F7
330
1F
100
AcDbEntity
  8
incisione
370
    35
100
AcDbLine
 10
2894.777096955685
 20
-444.1290730251013
 30
0.0
 11
2893.662608566206
 21
-443.5780300022356
 31
0.0
  0
LINE
  5
F8
330
1F
100
AcDbEntity
  8
incisione
370
    35
100
AcDbLine
 10
2893.662608566206
 20
-443.5780300022356
 30
0.0
 11
2894.207967181522
 21
-442.2640705841612
 31
0.0
  0
LINE
  5
F9
330
1F
100
AcDbEntity
  8
incisione
370
    35
100
AcDbLine
 10
2894.207967181522
 20
-442.2640705841612
 30
0.0
 11
2895.393424537996
 21
-442.6662854820643
 31
0.0
  0
LINE
  5
FA
330
1F
100
AcDbEntity
  8
incisione
370
    35
100
AcDbLine
 10
2895.393424537996
 20
-442.6662854820643
 30
0.0
 11
2896.041446998772
 21
-441.6982136507089
 31
0.0
  0
LINE
  5
FB
330
1F
100
AcDbEntity
  8
incisione
370
    35
100
AcDbLine
 10
2896.041446998772
 20
-441.6982136507089
 30
0.0
 11
2895.218413687346
 21
-440.7575303284616
 31
0.0
  0
LINE
  5
FC
330
1F
100
AcDbEntity
  8
incisione
370
    35
100
AcDbLine
 10
2895.218413687346
 20
-440.7575303284616
 30
0.0
 11
2896.228515683621
 21
-439.7562133256737
 31
0.0
  0
LINE
  5
FD
330
1F
100
AcDbEntity
  8
incisione
370
    35
100
AcDbLine
 10
2896.228515683621
 20
-439.7562133256737
 30
0.0
 11
2897.170404789288
 21
-440.5825194778109
 31
0.0
  0
LINE
  5
FE
330
1F
100
AcDbEntity
  8
incisione
370
    35
100
AcDbLine
 10
2897.170404789288
 20
-440.5825194778109
 30
0.0
 11
2898.140199168386
 21
-439.9357028004551
 31
0.0
  0
LINE
  5
FF
330
1F
100
AcDbEntity
  8
incisione
370
    35
100
AcDbLine
 10
2898.140199168386
 20
-439.9357028004551
 30
0.0
 11
2897.739879073
 21
-438.7531737751432
 31
0.0
  0
LINE
  5
100
330
1F
100
AcDbEntity
  8
incisione
370
    35
100
AcDbLine
 10
2897.739879073
 20
-438.7531737751432
 30
0.0
 11
2898.990793243694
 21
-438.2331366116447
 31
0.0
  0
LINE
  5
101
330
1F
100
AcDbEntity
  8
incisione
370
    35
100
AcDbLine
 10
2898.990793243694
 20
-438.2331366116447
 30
0.0
 11
2899.546142635916
 21
-439.3596828353215
 31
0.0
  0
LINE
  5
102
330
1F
100
AcDbEntity
  8
incisione
370
    35
100
AcDbLine
 10
2899.546142635916
 20
-439.3596828353215
 30
0.0
 11
2900.689225317922
 21
-439.1329955523919
 31
0.0
  0
LINE
  5
103
330
1F
100
AcDbEntity
  8
incisione
370
    35
100
AcDbLine
 10
2900.689225317922
 20
-439.1329955523919
 30
0.0
 11
2900.773285647762
 21
-437.8727796238875
 31
0.0
  0
LINE
  5
104
330
1F
100
AcDbEntity
  8
incisione
370
    35
100
AcDbLine
 10
2900.773285647762
 20
-437.8727796238875
 30
0.0
 11
2902.19163145904
 21
-437.8703680570479
 31
0.0
  0
LINE
  5
105
330
1F
100
AcDbEntity
  8
incisione
370
    35
100
AcDbLine
 10
2902.19163145904
 20
-437.8703680570479
 30
0.0
 11
2902.272935712492
 21
-439.1166313488371
 31
0.0
  0
LINE
  5
106
330
1F
100
AcDbEntity
  8
incisione
370
    35
100
AcDbLine
 10
2902.272935712492
 20
-439.1166313488371
 30
0.0
 11
2903.415673884949
 21
-439.3441799056378
 31
0.0
  0
LINE
  5
107
330
1F
100
AcDbEntity
  8
incisione
370
    35
100
AcDbLine
 10
2903.415673884949
 20
-439.3441799056378
 30
0.0
 11
2903.972056805816
 21
-438.2200452488008
 31
0.0
  0
LINE
  5
108
330
1F
100
AcDbEntity
  8
incisione
370
    35
100
AcDbLine
 10
2903.972056805816
 20
-438.2200452488008
 30
0.0
 11
2905.284638185697
 21
-438.7593749470167
 31
0.0
  0
LINE
  5
109
330
1F
100
AcDbEntity
  8
incisione
370
    35
100
AcDbLine
 10
2905.284638185697
 20
-438.7593749470167
 30
0.0
 11
2904.885007109408
 21
-439.9351860361324
 31
0.0
  0
LINE
  5
10A
330
1F
100
AcDbEntity
  8
incisione
370
    35
100
AcDbLine
 10
2904.885007109408
 20
-439.9351860361324
 30
0.0
 11
2905.853078940763
 21
-440.5833807516822
 31
0.0
  0
LINE
  5
10B
330
1F
100
AcDbEntity
  8
incisione
370
    35
100
AcDbLine
 10
2905.853078940763
 20
-440.5833807516822
 30
0.0
 11
2906.792211970042
 21
-439.7618977332244
 31
0.0
  0
LINE
  5
10C
330
1F
100
AcDbEntity
  8
incisione
370
    35
100
AcDbLine
 10
2906.792211970042
 20
-439.7618977332244
 30
0.0
 11
2907.796801813541
 21
-440.7663153219489
 31
0.0
  0
LINE
  5
10D
330
1F
100
AcDbEntity
  8
incisione
370
    35
100
AcDbLine
 10
2907.796801813541
 20
-440.7663153219489
 30
0.0
 11
2906.985481826765
 21
-441.6920124788355
 31
0.0
  0
LINE
  5
10E
330
1F
100
AcDbEntity
  8
incisione
370
    35
100
AcDbLine
 10
2906.985481826765
 20
-441.6920124788355
 30
0.0
 11
2907.631781739798
 21
-442.6609455840621
 31
0.0
  0
LINE
  5
10F
330
1F
100
AcDbEntity
  8
incisione
370
    35
100
AcDbLine
 10
2907.631781739798
 20
-442.6609455840621
 30
0.0
 11
2908.802425185685
 21
-442.2654486223554
 31
0.0
  0
LINE
  5
110
330
1F
100
AcDbEntity
  8
incisione
370
    35
100
AcDbLine
 10
2908.802425185685
 20
-442.2654486223554
 30
0.0
 11
2909.357085558811
 21
-443.6016289063095
 31
0.0
  0
LINE
  5
111
330
1F
100
AcDbEntity
  8
incisione
370
    35
100
AcDbLine
 10
2909.357085558811
 20
-443.6016289063095
 30
0.0
 11
2908.267401856826
 21
-444.13871929246
 31
0.0
  0
LINE
  5
112
330
1F
100
AcDbEntity
  8
incisione
370
    35
100
AcDbLine
 10
2908.267401856826
 20
-444.13871929246
 30
0.0
 11
2908.494089139755
 21
-445.2828355031114
 31
0.0
  0
LINE
  5
113
330
1F
100
AcDbEntity
  8
incisione
370
    35
100
AcDbLine
 10
2908.494089139755
 20
-445.2828355031114
 30
0.0
 11
2909.705729221918
 21
-445.3629339731435
 31
0.0
  0
LINE
  5
114
330
1F
100
AcDbEntity
  8
incisione
370
    35
100
AcDbLine
 10
2909.705729221918
 20
-445.3629339731435
 30
0.0
 11
2909.70297314553
 21
-446.7907537970053
 31
0.0
  0
LINE
  5
115
330
1F
100
AcDbEntity
  8
incisione
370
    35
100
AcDbLine
 10
2909.70297314553
 20
-446.7907537970053
 30
0.0
 11
2908.502012859372
 21
-446.8699909931661
 31
0.0
  0
LINE
  5
116
330
1F
100
AcDbEntity
  8
incisione
370
    35
100
AcDbLine
 10
2908.502012859372
 20
-446.8699909931661
 30
0.0
 11
2908.273258519151
 21
-448.0125569108492
 31
0.0
  0
LINE
  5
117
330
1F
100
AcDbEntity
  8
incisione
370
    35
100
AcDbLine
 10
2908.273258519151
 20
-448.0125569108492
 30
0.0
 11
2909.353640463326
 21
-448.5470634753857
 31
0.0
  0
LINE
  5
118
330
1F
100
AcDbEntity
  8
incisione
370
    35
100
AcDbLine
 10
2909.353640463326
 20
-448.5470634753857
 30
0.0
 11
2908.807592828914
 21
-449.8670518105591
 31
0.0
  0
LINE
  5
119
330
1F
100
AcDbEntity
  8
incisione
370
    35
100
AcDbLine
 10
2908.807592828914
 20
-449.8670518105591
 30
0.0
 11
2907.672089356975
 21
-449.4817178805339
 31
0.0
  0
LINE
  5
11A
330
1F
100
AcDbEntity
  8
incisione
370
    35
100
AcDbLine
 10
2907.672089356975
 20
-449.4817178805339
 30
0.0
 11
2907.024411405748
 21
-450.4497897118891
 31
0.0
  0
LINE
  5
11B
330
1F
100
AcDbEntity
  8
incisione
370
    35
100
AcDbLine
 10
2907.024411405748
 20
-450.4497897118891
 30
0.0
 11
2907.816094348259
 21
-451.3549885506386
 31
0.0
  0
LINE
  5
11C
330
1F
100
AcDbEntity
  8
incisione
370
    35
100
AcDbLine
 10
2907.816094348259
 20
-451.3549885506386
 30
0.0
 11
2906.805303332886
 21
-452.3657795660108
 31
0.0
  0
LINE
  5
11D
330
1F
100
AcDbEntity
  8
incisione
370
    35
100
AcDbLine
 10
2906.805303332886
 20
-452.3657795660108
 30
0.0
 11
2905.907166939882
 21
-451.5775417189857
 31
0.0
  0
LINE
  5
11E
330
1F
100
AcDbEntity
  8
incisione
370
    35
100
AcDbLine
 10
2913.11920545104
 20
-458.3400846341524
 30
0.0
 11
2913.11920545104
 21
-456.1669184020568
 31
0.0
  0
LINE
  5
11F
330
1F
100
AcDbEntity
  8
incisione
370
    35
100
AcDbLine
 10
2913.11920545104
 20
-456.1669184020568
 30
0.0
 11
2913.711761874503
 21
-456.1669184020568
 31
0.0
  0
LINE
  5
120
330
1F
100
AcDbEntity
  8
incisione
370
    35
100
AcDbLine
 10
2913.711761874503
 20
-456.1669184020568
 30
0.0
 11
2913.711761874503
 21
-458.3400846341524
 31
0.0
  0
LINE
  5
121
330
1F
100
AcDbEntity
  8
incisione
370
    35
100
AcDbLine
 10
2913.711761874503
 20
-458.3400846341524
 30
0.0
 11
2913.11920545104
 21
-458.3400846341524
 31
0.0
  0
SPLINE
  5
122
330
1F
100
AcDbEntity
  8
incisione
370
    35
100
AcDbSpline
210
0.0
220
0.0
230
1.0
 70
    24
 71
     3
 72
     8
 73
     4
 74
     0
 42
0.000000001
 43
0.0000000001
 40
11.0
 40
11.0
 40
11.0
 40
11.0
 40
12.0
 40
12.0
 40
12.0
 40
12.0
 10
2912.822927239308
 20
-455.1792095264357
 30
0.0
 10
2912.822927239308
 20
-455.1792095264357
 30
0.0
 10
2912.328900546724
 20
-455.1792095264357
 30
0.0
 10
2912.328900546724
 20
-455.1792095264357
 30
0.0
  0
LINE
  5
123
330
1F
100
AcDbEntity
  8
incisione
370
    35
100
AcDbLine
 10
2912.328900546724
 20
-455.1792095264357
 30
0.0
 11
2912.328900546724
 21
-454.5863085934242
 31
0.0
  0
LINE
  5
124
330
1F
100
AcDbEntity
  8
incisione
370
    35
100
AcDbLine
 10
2912.328900546724
 20
-454.5863085934242
 30
0.0
 11
2912.822927239308
 21
-454.5863085934242
 31
0.0
  0
SPLINE
  5
125
330
1F
100
AcDbEntity
  8
incisione
370
    35
100
AcDbSpline
210
0.0
220
0.0
230
1.0
 70
     8
 71
     3
 72
    17
 73
    13
 74
     0
 42
0.000000001
 43
0.0000000001
 40
14.0
 40
14.0
 40
14.0
 40
14.0
 40
15.0
 40
15.0
 40
15.0
 40
16.0
 40
16.0
 40
16.0
 40
17.0
 40
17.0
 40
17.0
 40
18.0
 40
18.0
 40
18.0
 40
18.0
 10
2912.822927239308
 20
-454.5863085934242
 30
0.0
 10
2912.944883619486
 20
-454.5863085934242
 30
0.0
 10
2913.059949808694
 20
-454.6097352427239
 30
0.0
 10
2913.168814826027
 20
-454.6558995222263
 30
0.0
 10
2913.277335333813
 20
-454.7020638017286
 30
0.0
 10
2913.372075459657
 20
-454.7651090491087
 30
0.0
 10
2913.452690694012
 20
-454.8460687930121
 30
0.0
 10
2913.533305928367
 20
-454.9266840273669
 30
0.0
 10
2913.596695685295
 20
-455.0210796436627
 30
0.0
 10
2913.642859964797
 20
-455.1299446609967
 30
0.0
 10
2913.6890242443
 20
-455.238465168782
 30
0.0
 10
2913.711761874503
 20
-455.3538758675379
 30
0.0
 10
2913.711761874503
 20
-455.4754877381672
 30
0.0
  0
LINE
  5
126
330
1F
100
AcDbEntity
  8
incisione
370
    35
100
AcDbLine
 10
2913.711761874503
 20
-455.4754877381672
 30
0.0
 11
2913.711761874503
 21
-455.9691699212035
 31
0.0
  0
LINE
  5
127
330
1F
100
AcDbEntity
  8
incisione
370
    35
100
AcDbLine
 10
2913.711761874503
 20
-455.9691699212035
 30
0.0
 11
2913.11920545104
 21
-455.9691699212035
 31
0.0
  0
LINE
  5
128
330
1F
100
AcDbEntity
  8
incisione
370
    35
100
AcDbLine
 10
2913.11920545104
 20
-455.9691699212035
 30
0.0
 11
2913.11920545104
 21
-455.4754877381672
 31
0.0
  0
SPLINE
  5
129
330
1F
100
AcDbEntity
  8
incisione
370
    35
100
AcDbSpline
210
0.0
220
0.0
230
1.0
 70
     8
 71
     3
 72
    11
 73
     7
 74
     0
 42
0.000000001
 43
0.0000000001
 40
21.0
 40
21.0
 40
21.0
 40
21.0
 40
22.0
 40
22.0
 40
22.0
 40
23.0
 40
23.0
 40
23.0
 40
23.0
 10
2913.11920545104
 20
-455.4754877381672
 30
0.0
 10
2913.11920545104
 20
-455.3931499560696
 30
0.0
 10
2913.090955668061
 20
-455.3232145177192
 30
0.0
 10
2913.0351451212
 20
-455.2656814231156
 30
0.0
 10
2912.979334574339
 20
-455.2078038189632
 30
0.0
 10
2912.908365607342
 20
-455.1792095264357
 30
0.0
 10
2912.822927239308
 20
-455.1792095264357
 30
0.0
  0
LINE
  5
12A
330
1F
100
AcDbEntity
  8
incisione
370
    35
100
AcDbLine
 10
2914.79800078476
 20
-470.8519969526915
 30
0.0
 11
2913.41513945698
 21
-470.8519969526915
 31
0.0
  0
LINE
  5
12B
330
1F
100
AcDbEntity
  8
incisione
370
    35
100
AcDbLine
 10
2913.41513945698
 20
-470.8519969526915
 30
0.0
 11
2913.41513945698
 21
-470.25909601968
 31
0.0
  0
LINE
  5
12C
330
1F
100
AcDbEntity
  8
incisione
370
    35
100
AcDbLine
 10
2913.41513945698
 20
-470.25909601968
 30
0.0
 11
2914.79800078476
 21
-470.25909601968
 31
0.0
  0
LINE
  5
12D
330
1F
100
AcDbEntity
  8
incisione
370
    35
100
AcDbLine
 10
2914.79800078476
 20
-470.25909601968
 30
0.0
 11
2914.79800078476
 21
-470.8519969526915
 31
0.0
  0
SPLINE
  5
12E
330
1F
100
AcDbEntity
  8
incisione
370
    35
100
AcDbSpline
210
0.0
220
0.0
230
1.0
 70
    24
 71
     3
 72
     8
 73
     4
 74
     0
 42
0.000000001
 43
0.0000000001
 40
19.0
 40
19.0
 40
19.0
 40
19.0
 40
20.0
 40
20.0
 40
20.0
 40
20.0
 10
2914.205444361296
 20
-468.3825525088644
 30
0.0
 10
2914.205444361296
 20
-468.3825525088644
 30
0.0
 10
2914.205444361296
 20
-467.9870555471578
 30
0.0
 10
2914.205444361296
 20
-467.9870555471578
 30
0.0
  0
SPLINE
  5
12F
330
1F
100
AcDbEntity
  8
incisione
370
    35
100
AcDbSpline
210
0.0
220
0.0
230
1.0
 70
     8
 71
     3
 72
    11
 73
     7
 74
     0
 42
0.000000001
 43
0.0000000001
 40
20.0
 40
20.0
 40
20.0
 40
20.0
 40
21.0
 40
21.0
 40
21.0
 40
22.0
 40
22.0
 40
22.0
 40
22.0
 10
2914.205444361296
 20
-467.9870555471578
 30
0.0
 10
2914.205444361296
 20
-467.9050622746088
 30
0.0
 10
2914.177194578318
 20
-467.8347823267097
 30
0.0
 10
2914.121384031457
 20
-467.7775937416545
 30
0.0
 10
2914.065573484595
 20
-467.7197161375024
 30
0.0
 10
2913.994604517599
 20
-467.6907773354262
 30
0.0
 10
2913.909166149565
 20
-467.6907773354262
 30
0.0
  0
LINE
  5
130
330
1F
100
AcDbEntity
  8
incisione
370
    35
100
AcDbLine
 10
2913.909166149565
 20
-467.6907773354262
 30
0.0
 11
2913.41513945698
 21
-467.6907773354262
 31
0.0
  0
LINE
  5
131
330
1F
100
AcDbEntity
  8
incisione
370
    35
100
AcDbLine
 10
2913.41513945698
 20
-467.6907773354262
 30
0.0
 11
2913.41513945698
 21
-467.0982209119634
 31
0.0
  0
LINE
  5
132
330
1F
100
AcDbEntity
  8
incisione
370
    35
100
AcDbLine
 10
2913.41513945698
 20
-467.0982209119634
 30
0.0
 11
2913.909166149565
 21
-467.0982209119634
 31
0.0
  0
SPLINE
  5
133
330
1F
100
AcDbEntity
  8
incisione
370
    35
100
AcDbSpline
210
0.0
220
0.0
230
1.0
 70
     8
 71
     3
 72
    17
 73
    13
 74
     0
 42
0.000000001
 43
0.0000000001
 40
25.0
 40
25.0
 40
25.0
 40
25.0
 40
26.0
 40
26.0
 40
26.0
 40
27.0
 40
27.0
 40
27.0
 40
28.0
 40
28.0
 40
28.0
 40
29.0
 40
29.0
 40
29.0
 40
29.0
 10
2913.909166149565
 20
-467.0982209119634
 30
0.0
 10
2914.031122529743
 20
-467.0982209119634
 30
0.0
 10
2914.14618871895
 20
-467.1213030517144
 30
0.0
 10
2914.255053736284
 20
-467.1674673312168
 30
0.0
 10
2914.363229734521
 20
-467.2136316107192
 30
0.0
 10
2914.458314369914
 20
-467.2766768580992
 30
0.0
 10
2914.538929604269
 20
-467.3576366020027
 30
0.0
 10
2914.619544838623
 20
-467.4382518363575
 30
0.0
 10
2914.682934595552
 20
-467.5329919622018
 30
0.0
 10
2914.729098875055
 20
-467.6415124699872
 30
0.0
 10
2914.775263154557
 20
-467.7500329777725
 30
0.0
 10
2914.79800078476
 20
-467.8654436765283
 30
0.0
 10
2914.79800078476
 20
-467.9870555471578
 30
0.0
  0
LINE
  5
134
330
1F
100
AcDbEntity
  8
incisione
370
    35
100
AcDbLine
 10
2914.79800078476
 20
-467.9870555471578
 30
0.0
 11
2914.79800078476
 21
-468.3825525088644
 31
0.0
  0
SPLINE
  5
135
330
1F
100
AcDbEntity
  8
incisione
370
    35
100
AcDbSpline
210
0.0
220
0.0
230
1.0
 70
     8
 71
     3
 72
    17
 73
    13
 74
     0
 42
0.000000001
 43
0.0000000001
 40
30.0
 40
30.0
 40
30.0
 40
30.0
 40
31.0
 40
31.0
 40
31.0
 40
32.0
 40
32.0
 40
32.0
 40
33.0
 40
33.0
 40
33.0
 40
34.0
 40
34.0
 40
34.0
 40
34.0
 10
2914.79800078476
 20
-468.3825525088644
 30
0.0
 10
2914.79800078476
 20
-468.5041643794937
 30
0.0
 10
2914.775263154557
 20
-468.6195750782497
 30
0.0
 10
2914.729098875055
 20
-468.7280955860349
 30
0.0
 10
2914.682934595552
 20
-468.8366160938203
 30
0.0
 10
2914.619544838623
 20
-468.9317007292132
 30
0.0
 10
2914.538929604269
 20
-469.0123159635681
 30
0.0
 10
2914.458314369914
 20
-469.0929311979229
 30
0.0
 10
2914.363229734521
 20
-469.1563209548515
 30
0.0
 10
2914.255053736284
 20
-469.2024852343538
 30
0.0
 10
2914.14618871895
 20
-469.2483050043077
 30
0.0
 10
2914.031122529743
 20
-469.271387144059
 30
0.0
 10
2913.909166149565
 20
-469.271387144059
 30
0.0
  0
LINE
  5
136
330
1F
100
AcDbEntity
  8
incisione
370
    35
100
AcDbLine
 10
2913.909166149565
 20
-469.271387144059
 30
0.0
 11
2913.41513945698
 21
-469.271387144059
 31
0.0
  0
LINE
  5
137
330
1F
100
AcDbEntity
  8
incisione
370
    35
100
AcDbLine
 10
2913.41513945698
 20
-469.271387144059
 30
0.0
 11
2913.41513945698
 21
-468.6788307205959
 31
0.0
  0
LINE
  5
138
330
1F
100
AcDbEntity
  8
incisione
370
    35
100
AcDbLine
 10
2913.41513945698
 20
-468.6788307205959
 30
0.0
 11
2913.909166149565
 21
-468.6788307205959
 31
0.0
  0
SPLINE
  5
139
330
1F
100
AcDbEntity
  8
incisione
370
    35
100
AcDbSpline
210
0.0
220
0.0
230
1.0
 70
     8
 71
     3
 72
    11
 73
     7
 74
     0
 42
0.000000001
 43
0.0000000001
 40
37.0
 40
37.0
 40
37.0
 40
37.0
 40
38.0
 40
38.0
 40
38.0
 40
39.0
 40
39.0
 40
39.0
 40
39.0
 10
2913.909166149565
 20
-468.6788307205959
 30
0.0
 10
2913.994604517599
 20
-468.6788307205959
 30
0.0
 10
2914.065573484595
 20
-468.6498919185199
 30
0.0
 10
2914.121384031457
 20
-468.5923588239161
 30
0.0
 10
2914.177194578318
 20
-468.5348257293124
 30
0.0
 10
2914.205444361296
 20
-468.4645457814133
 30
0.0
 10
2914.205444361296
 20
-468.3825525088644
 30
0.0
  0
LINE
  5
13A
330
1F
100
AcDbEntity
  8
incisione
370
    35
100
AcDbLine
 10
2913.217390976127
 20
-470.8519969526915
 30
0.0
 11
2911.834529648348
 21
-470.8519969526915
 31
0.0
  0
LINE
  5
13B
330
1F
100
AcDbEntity
  8
incisione
370
    35
100
AcDbLine
 10
2911.834529648348
 20
-470.8519969526915
 30
0.0
 11
2911.834529648348
 21
-470.25909601968
 31
0.0
  0
LINE
  5
13C
330
1F
100
AcDbEntity
  8
incisione
370
    35
100
AcDbLine
 10
2911.834529648348
 20
-470.25909601968
 30
0.0
 11
2913.217390976127
 21
-470.25909601968
 31
0.0
  0
LINE
  5
13D
330
1F
100
AcDbEntity
  8
incisione
370
    35
100
AcDbLine
 10
2913.217390976127
 20
-470.25909601968
 30
0.0
 11
2913.217390976127
 21
-470.8519969526915
 31
0.0
  0
SPLINE
  5
13E
330
1F
100
AcDbEntity
  8
incisione
370
    35
100
AcDbSpline
210
0.0
220
0.0
230
1.0
 70
    24
 71
     3
 72
     8
 73
     4
 74
     0
 42
0.000000001
 43
0.0000000001
 40
11.0
 40
11.0
 40
11.0
 40
11.0
 40
12.0
 40
12.0
 40
12.0
 40
12.0
 10
2912.427430581359
 20
-469.5676653557903
 30
0.0
 10
2912.427430581359
 20
-469.5676653557903
 30
0.0
 10
2912.427430581359
 20
-470.0616920483752
 30
0.0
 10
2912.427430581359
 20
-470.0616920483752
 30
0.0
  0
LINE
  5
13F
330
1F
100
AcDbEntity
  8
incisione
370
    35
100
AcDbLine
 10
2912.427430581359
 20
-470.0616920483752
 30
0.0
 11
2911.834529648348
 21
-470.0616920483752
 31
0.0
  0
LINE
  5
140
330
1F
100
AcDbEntity
  8
incisione
370
    35
100
AcDbLine
 10
2911.834529648348
 20
-470.0616920483752
 30
0.0
 11
2911.834529648348
 21
-469.5676653557903
 31
0.0
  0
SPLINE
  5
141
330
1F
100
AcDbEntity
  8
incisione
370
    35
100
AcDbSpline
210
0.0
220
0.0
230
1.0
 70
     8
 71
     3
 72
    17
 73
    13
 74
     0
 42
0.000000001
 43
0.0000000001
 40
14.0
 40
14.0
 40
14.0
 40
14.0
 40
15.0
 40
15.0
 40
15.0
 40
16.0
 40
16.0
 40
16.0
 40
17.0
 40
17.0
 40
17.0
 40
18.0
 40
18.0
 40
18.0
 40
18.0
 10
2911.834529648348
 20
-469.5676653557903
 30
0.0
 10
2911.834529648348
 20
-469.4457089756125
 30
0.0
 10
2911.857956297647
 20
-469.3306427864052
 30
0.0
 10
2911.90412057715
 20
-469.2217777690713
 30
0.0
 10
2911.949940347104
 20
-469.113257261286
 30
0.0
 10
2912.013330104032
 20
-469.0185171354415
 30
0.0
 10
2912.094289847935
 20
-468.9379019010867
 30
0.0
 10
2912.17490508229
 20
-468.8572866667319
 30
0.0
 10
2912.269300698586
 20
-468.7938969098033
 30
0.0
 10
2912.37816571592
 20
-468.7477326303009
 30
0.0
 10
2912.486686223705
 20
-468.7015683507985
 30
0.0
 10
2912.602096922461
 20
-468.6788307205959
 30
0.0
 10
2912.723708793091
 20
-468.6788307205959
 30
0.0
  0
LINE
  5
142
330
1F
100
AcDbEntity
  8
incisione
370
    35
100
AcDbLine
 10
2912.723708793091
 20
-468.6788307205959
 30
0.0
 11
2913.217390976127
 21
-468.6788307205959
 31
0.0
  0
LINE
  5
143
330
1F
100
AcDbEntity
  8
incisione
370
    35
100
AcDbLine
 10
2913.217390976127
 20
-468.6788307205959
 30
0.0
 11
2913.217390976127
 21
-469.271387144059
 31
0.0
  0
LINE
  5
144
330
1F
100
AcDbEntity
  8
incisione
370
    35
100
AcDbLine
 10
2913.217390976127
 20
-469.271387144059
 30
0.0
 11
2912.723708793091
 21
-469.271387144059
 31
0.0
  0
SPLINE
  5
145
330
1F
100
AcDbEntity
  8
incisione
370
    35
100
AcDbSpline
210
0.0
220
0.0
230
1.0
 70
     8
 71
     3
 72
    11
 73
     7
 74
     0
 42
0.000000001
 43
0.0000000001
 40
21.0
 40
21.0
 40
21.0
 40
21.0
 40
22.0
 40
22.0
 40
22.0
 40
23.0
 40
23.0
 40
23.0
 40
23.0
 10
2912.723708793091
 20
-469.271387144059
 30
0.0
 10
2912.641371010993
 20
-469.271387144059
 30
0.0
 10
2912.571435572643
 20
-469.300325946135
 30
0.0
 10
2912.513902478039
 20
-469.3578590407386
 30
0.0
 10
2912.456024873887
 20
-469.4153921353424
 30
0.0
 10
2912.427430581359
 20
-469.4856720832414
 30
0.0
 10
2912.427430581359
 20
-469.5676653557903
 30
0.0
  0
LINE
  5
146
330
1F
100
AcDbEntity
  8
incisione
370
    35
100
AcDbLine
 10
2913.217390976127
 20
-467.6907773354262
 30
0.0
 11
2911.834529648348
 21
-467.6907773354262
 31
0.0
  0
LINE
  5
147
330
1F
100
AcDbEntity
  8
incisione
370
    35
100
AcDbLine
 10
2911.834529648348
 20
-467.6907773354262
 30
0.0
 11
2911.834529648348
 21
-467.0982209119634
 31
0.0
  0
LINE
  5
148
330
1F
100
AcDbEntity
  8
incisione
370
    35
100
AcDbLine
 10
2911.834529648348
 20
-467.0982209119634
 30
0.0
 11
2913.217390976127
 21
-467.0982209119634
 31
0.0
  0
LINE
  5
149
330
1F
100
AcDbEntity
  8
incisione
370
    35
100
AcDbLine
 10
2913.217390976127
 20
-467.0982209119634
 30
0.0
 11
2913.217390976127
 21
-467.6907773354262
 31
0.0
  0
SPLINE
  5
14A
330
1F
100
AcDbEntity
  8
incisione
100
AcDbSpline
210
0.0
220
0.0
230
1.0
 70
    24
 71
     2
 72
     6
 73
     3
 74
     0
 42
0.000000001
 43
0.0000000001
 40
18.0
 40
18.0
 40
18.0
 40
19.0
 40
19.0
 40
19.0
 10
2919.975898021962
 20
-459.8863196574467
 30
0.0
 10
2920.289140494187
 20
-459.8863196574467
 30
0.0
 10
2920.602382966411
 20
-459.8863196574467
 30
0.0
  0
SPLINE
  5
14B
330
1F
100
AcDbEntity
  8
incisione
100
AcDbSpline
210
0.0
220
0.0
230
1.0
 70
    24
 71
     2
 72
     6
 73
     3
 74
     0
 42
0.000000001
 43
0.0000000001
 40
19.0
 40
19.0
 40
19.0
 40
20.0
 40
20.0
 40
20.0
 10
2920.602382966411
 20
-459.8863196574467
 30
0.0
 10
2920.602382966411
 20
-460.2616972615195
 30
0.0
 10
2920.602382966411
 20
-460.6370748655924
 30
0.0
  0
LINE
  5
14C
330
1F
100
AcDbEntity
  8
incisione
100
AcDbLine
 10
2920.602382966411
 20
-460.6370748655924
 30
0.0
 11
2919.975898021962
 21
-460.6370748655924
 31
0.0
  0
SPLINE
  5
14D
330
1F
100
AcDbEntity
  8
incisione
100
AcDbSpline
210
0.0
220
0.0
230
1.0
 70
     8
 71
     2
 72
     8
 73
     5
 74
     0
 42
0.000000001
 43
0.0000000001
 40
21.0
 40
21.0
 40
21.0
 40
22.0
 40
22.0
 40
23.0
 40
23.0
 40
23.0
 10
2919.975898021962
 20
-460.6370748655924
 30
0.0
 10
2919.819368611168
 20
-460.6370748655924
 30
0.0
 10
2919.709761221886
 20
-460.7466820758775
 30
0.0
 10
2919.600153832604
 20
-460.8562892861626
 30
0.0
 10
2919.600153832604
 20
-461.0128186969569
 30
0.0
  0
SPLINE
  5
14E
330
1F
100
AcDbEntity
  8
incisione
100
AcDbSpline
210
0.0
220
0.0
230
1.0
 70
    24
 71
     2
 72
     6
 73
     3
 74
     0
 42
0.000000001
 43
0.0000000001
 40
23.0
 40
23.0
 40
23.0
 40
24.0
 40
24.0
 40
24.0
 10
2919.600153832604
 20
-461.0128186969569
 30
0.0
 10
2919.600153832604
 20
-461.3260611691813
 30
0.0
 10
2919.600153832604
 20
-461.6393036414058
 30
0.0
  0
SPLINE
  5
14F
330
1F
100
AcDbEntity
  8
incisione
100
AcDbSpline
210
0.0
220
0.0
230
1.0
 70
    24
 71
     2
 72
     6
 73
     3
 74
     0
 42
0.000000001
 43
0.0000000001
 40
24.0
 40
24.0
 40
24.0
 40
25.0
 40
25.0
 40
25.0
 10
2919.600153832604
 20
-461.6393036414058
 30
0.0
 10
2919.224776228531
 20
-461.6393036414058
 30
0.0
 10
2918.849398624458
 20
-461.6393036414058
 30
0.0
  0
LINE
  5
150
330
1F
100
AcDbEntity
  8
incisione
100
AcDbLine
 10
2918.849398624458
 20
-461.6393036414058
 30
0.0
 11
2918.849398624458
 21
-461.0128186969569
 31
0.0
  0
SPLINE
  5
151
330
1F
100
AcDbEntity
  8
incisione
100
AcDbSpline
210
0.0
220
0.0
230
1.0
 70
     8
 71
     2
 72
    12
 73
     9
 74
     0
 42
0.000000001
 43
0.0000000001
 40
26.0
 40
26.0
 40
26.0
 40
27.0
 40
27.0
 40
28.0
 40
28.0
 40
29.0
 40
29.0
 40
30.0
 40
30.0
 40
30.0
 10
2918.849398624458
 20
-461.0128186969569
 30
0.0
 10
2918.849398624458
 20
-460.7811403766924
 30
0.0
 10
2918.937011254626
 20
-460.5745727904655
 30
0.0
 10
2919.024623884794
 20
-460.3680052042386
 30
0.0
 10
2919.177854207019
 20
-460.2147748820137
 30
0.0
 10
2919.331084529244
 20
-460.0615445597889
 30
0.0
 10
2919.537652115471
 20
-459.9739321086179
 30
0.0
 10
2919.744219701698
 20
-459.8863196574467
 30
0.0
 10
2919.975898021962
 20
-459.8863196574467
 30
0.0
  0
LINE
  5
152
330
1F
100
AcDbEntity
  8
incisione
370
    35
100
AcDbLine
 10
2939.829376350317
 20
-444.8580552297801
 30
0.0
 11
2939.829376350317
 21
-441.739554796532
 31
0.0
  0
LINE
  5
153
330
1F
100
AcDbEntity
  8
incisione
370
    35
100
AcDbLine
 10
2939.829376350317
 20
-441.739554796532
 30
0.0
 11
2936.78649576297
 21
-447.9765556630284
 31
0.0
  0
LINE
  5
154
330
1F
100
AcDbEntity
  8
incisione
370
    35
100
AcDbLine
 10
2936.78649576297
 20
-447.9765556630284
 30
0.0
 11
2936.715871305522
 21
-441.739554796532
 31
0.0
  0
LINE
  5
155
330
1F
100
AcDbEntity
  8
incisione
370
    35
100
AcDbLine
 10
2936.715871305522
 20
-441.739554796532
 30
0.0
 11
2933.672818463401
 21
-447.9765556630284
 31
0.0
  0
LINE
  5
156
330
1F
100
AcDbEntity
  8
incisione
370
    35
100
AcDbLine
 10
2933.672818463401
 20
-447.9765556630284
 30
0.0
 11
2933.60288302505
 21
-441.739554796532
 31
0.0
  0
LINE
  5
157
330
1F
100
AcDbEntity
  8
incisione
370
    35
100
AcDbLine
 10
2933.60288302505
 20
-441.739554796532
 30
0.0
 11
2930.559657928155
 21
-447.9765556630284
 31
0.0
  0
LINE
  5
158
330
1F
100
AcDbEntity
  8
incisione
370
    35
100
AcDbLine
 10
2930.559657928155
 20
-447.9765556630284
 30
0.0
 11
2930.551561953765
 21
-441.739554796532
 31
0.0
  0
LINE
  5
159
330
1F
100
AcDbEntity
  8
incisione
370
    35
100
AcDbLine
 10
2930.551561953765
 20
-441.739554796532
 30
0.0
 11
2927.508336856869
 21
-447.9765556630284
 31
0.0
  0
LINE
  5
15A
330
1F
100
AcDbEntity
  8
incisione
370
    35
100
AcDbLine
 10
2927.508336856869
 20
-447.9765556630284
 30
0.0
 11
2927.508336856869
 21
-444.8580552297801
 31
0.0
  0
LINE
  5
15B
330
1F
100
AcDbEntity
  8
taglio n°3
100
AcDbLine
 10
2879.770041868516
 20
-487.5532088763691
 30
0.0
 11
2879.770041868516
 21
-391.0532088763691
 31
0.0
  0
ARC
  5
15C
330
1F
100
AcDbEntity
  8
taglio n°3
100
AcDbCircle
 10
2887.770041868516
 20
-391.0532088763691
 30
0.0
 40
8.0
100
AcDbArc
 50
89.99999999999022
 51
180.0
  0
LINE
  5
15D
330
1F
100
AcDbEntity
  8
taglio n°3
100
AcDbLine
 10
2887.770041868516
 20
-383.0532088763691
 30
0.0
 11
2971.770041868515
 21
-383.0532088763691
 31
0.0
  0
ARC
  5
15E
330
1F
100
AcDbEntity
  8
taglio n°3
100
AcDbCircle
 10
2971.770041868515
 20
-391.0532088763691
 30
0.0
 40
8.0
100
AcDbArc
 50
0.0
 51
90.0
  0
LINE
  5
15F
330
1F
100
AcDbEntity
  8
taglio n°3
100
AcDbLine
 10
2979.770041868515
 20
-391.0532088763691
 30
0.0
 11
2979.770041868516
 21
-487.5532088763692
 31
0.0
  0
ARC
  5
160
330
1F
100
AcDbEntity
  8
taglio n°3
100
AcDbCircle
 10
2971.770041868516
 20
-487.5532088763692
 30
0.0
 40
8.0
100
AcDbArc
 50
269.9999999999902
 51
0.0
  0
LINE
  5
161
330
1F
100
AcDbEntity
  8
taglio n°3
100
AcDbLine
 10
2971.770041868516
 20
-495.5532088763692
 30
0.0
 11
2887.770041868518
 21
-495.5532088763692
 31
0.0
  0
ARC
  5
162
330
1F
100
AcDbEntity
  8
taglio n°3
100
AcDbCircle
 10
2887.770041868516
 20
-487.5532088763691
 30
0.0
 40
8.0
100
AcDbArc
 50
180.0
 51
270.0
  0
SPLINE
  5
163
330
1F
100
AcDbEntity
  8
incisione
100
AcDbSpline
210
0.0
220
0.0
230
1.0
 70
    24
 71
     2
 72
     6
 73
     3
 74
     0
 42
0.000000001
 43
0.0000000001
 40
3.0
 40
3.0
 40
3.0
 40
4.0
 40
4.0
 40
4.0
 10
2919.600153832604
 20
-462.8948389113127
 30
0.0
 10
2919.600153832604
 20
-463.7718809602167
 30
0.0
 10
2919.600153832604
 20
-464.6489230091206
 30
0.0
  0
SPLINE
  5
164
330
1F
100
AcDbEntity
  8
incisione
100
AcDbSpline
210
0.0
220
0.0
230
1.0
 70
    24
 71
     2
 72
     6
 73
     3
 74
     0
 42
0.000000001
 43
0.0000000001
 40
4.0
 40
4.0
 40
4.0
 40
5.0
 40
5.0
 40
5.0
 10
2919.600153832604
 20
-464.6489230091206
 30
0.0
 10
2919.224776228531
 20
-464.6489230091206
 30
0.0
 10
2918.849398624458
 20
-464.6489230091206
 30
0.0
  0
SPLINE
  5
165
330
1F
100
AcDbEntity
  8
incisione
100
AcDbSpline
210
0.0
220
0.0
230
1.0
 70
    24
 71
     2
 72
     6
 73
     3
 74
     0
 42
0.000000001
 43
0.0000000001
 40
5.0
 40
5.0
 40
5.0
 40
6.0
 40
6.0
 40
6.0
 10
2918.849398624458
 20
-464.6489230091206
 30
0.0
 10
2918.849398624458
 20
-463.7718809602167
 30
0.0
 10
2918.849398624458
 20
-462.8948389113127
 30
0.0
  0
SPLINE
  5
166
330
1F
100
AcDbEntity
  8
incisione
100
AcDbSpline
210
0.0
220
0.0
230
1.0
 70
    24
 71
     2
 72
     6
 73
     3
 74
     0
 42
0.000000001
 43
0.0000000001
 40
6.0
 40
6.0
 40
6.0
 40
7.0
 40
7.0
 40
7.0
 10
2918.849398624458
 20
-462.8948389113127
 30
0.0
 10
2919.224776228531
 20
-462.8948389113127
 30
0.0
 10
2919.600153832604
 20
-462.8948389113127
 30
0.0
  0
SPLINE
  5
167
330
1F
100
AcDbEntity
  8
incisione
100
AcDbSpline
210
0.0
220
0.0
230
1.0
 70
    24
 71
     2
 72
     6
 73
     3
 74
     0
 42
0.000000001
 43
0.0000000001
 40
18.0
 40
18.0
 40
18.0
 40
19.0
 40
19.0
 40
19.0
 10
2917.465560294725
 20
-459.8863196574467
 30
0.0
 10
2917.778802766949
 20
-459.8863196574467
 30
0.0
 10
2918.092045239174
 20
-459.8863196574467
 30
0.0
  0
SPLINE
  5
168
330
1F
100
AcDbEntity
  8
incisione
100
AcDbSpline
210
0.0
220
0.0
230
1.0
 70
    24
 71
     2
 72
     6
 73
     3
 74
     0
 42
0.000000001
 43
0.0000000001
 40
19.0
 40
19.0
 40
19.0
 40
20.0
 40
20.0
 40
20.0
 10
2918.092045239174
 20
-459.8863196574467
 30
0.0
 10
2918.092045239174
 20
-460.2616972615195
 30
0.0
 10
2918.092045239174
 20
-460.6370748655924
 30
0.0
  0
LINE
  5
169
330
1F
100
AcDbEntity
  8
incisione
100
AcDbLine
 10
2918.092045239174
 20
-460.6370748655924
 30
0.0
 11
2917.465560294725
 21
-460.6370748655924
 31
0.0
  0
SPLINE
  5
16A
330
1F
100
AcDbEntity
  8
incisione
100
AcDbSpline
210
0.0
220
0.0
230
1.0
 70
     8
 71
     2
 72
     8
 73
     5
 74
     0
 42
0.000000001
 43
0.0000000001
 40
21.0
 40
21.0
 40
21.0
 40
22.0
 40
22.0
 40
23.0
 40
23.0
 40
23.0
 10
2917.465560294725
 20
-460.6370748655924
 30
0.0
 10
2917.309030883931
 20
-460.6370748655924
 30
0.0
 10
2917.199423494649
 20
-460.7466820758775
 30
0.0
 10
2917.089816105367
 20
-460.8562892861626
 30
0.0
 10
2917.089816105367
 20
-461.0128186969569
 30
0.0
  0
SPLINE
  5
16B
330
1F
100
AcDbEntity
  8
incisione
100
AcDbSpline
210
0.0
220
0.0
230
1.0
 70
    24
 71
     2
 72
     6
 73
     3
 74
     0
 42
0.000000001
 43
0.0000000001
 40
23.0
 40
23.0
 40
23.0
 40
24.0
 40
24.0
 40
24.0
 10
2917.089816105367
 20
-461.0128186969569
 30
0.0
 10
2917.089816105367
 20
-461.3260611691813
 30
0.0
 10
2917.089816105367
 20
-461.6393036414058
 30
0.0
  0
SPLINE
  5
16C
330
1F
100
AcDbEntity
  8
incisione
100
AcDbSpline
210
0.0
220
0.0
230
1.0
 70
    24
 71
     2
 72
     6
 73
     3
 74
     0
 42
0.000000001
 43
0.0000000001
 40
24.0
 40
24.0
 40
24.0
 40
25.0
 40
25.0
 40
25.0
 10
2917.089816105367
 20
-461.6393036414058
 30
0.0
 10
2916.714438501294
 20
-461.6393036414058
 30
0.0
 10
2916.339060897221
 20
-461.6393036414058
 30
0.0
  0
LINE
  5
16D
330
1F
100
AcDbEntity
  8
incisione
100
AcDbLine
 10
2916.339060897221
 20
-461.6393036414058
 30
0.0
 11
2916.339060897221
 21
-461.0128186969569
 31
0.0
  0
SPLINE
  5
16E
330
1F
100
AcDbEntity
  8
incisione
100
AcDbSpline
210
0.0
220
0.0
230
1.0
 70
     8
 71
     2
 72
    12
 73
     9
 74
     0
 42
0.000000001
 43
0.0000000001
 40
26.0
 40
26.0
 40
26.0
 40
27.0
 40
27.0
 40
28.0
 40
28.0
 40
29.0
 40
29.0
 40
30.0
 40
30.0
 40
30.0
 10
2916.339060897221
 20
-461.0128186969569
 30
0.0
 10
2916.339060897221
 20
-460.7811403766924
 30
0.0
 10
2916.426673527389
 20
-460.5745727904655
 30
0.0
 10
2916.514286157557
 20
-460.3680052042386
 30
0.0
 10
2916.667516479782
 20
-460.2147748820137
 30
0.0
 10
2916.820746802007
 20
-460.0615445597889
 30
0.0
 10
2917.027314388234
 20
-459.9739321086179
 30
0.0
 10
2917.23388197446
 20
-459.8863196574467
 30
0.0
 10
2917.465560294725
 20
-459.8863196574467
 30
0.0
  0
LINE
  5
16F
330
1F
100
AcDbEntity
  8
taglio n°1
100
AcDbLine
 10
2964.670041868516
 20
-428.1532088763692
 30
0.0
 11
2964.670041868516
 21
-400.3532088763693
 31
0.0
  0
LINE
  5
170
330
1F
100
AcDbEntity
  8
taglio n°1
100
AcDbLine
 10
2964.670041868516
 20
-400.3532088763693
 30
0.0
 11
2894.870041868516
 21
-400.3532088763693
 31
0.0
  0
LINE
  5
171
330
1F
100
AcDbEntity
  8
taglio n°1
100
AcDbLine
 10
2894.870041868516
 20
-400.3532088763693
 30
0.0
 11
2894.870041868516
 21
-428.1532088763692
 31
0.0
  0
LINE
  5
172
330
1F
100
AcDbEntity
  8
taglio n°1
100
AcDbLine
 10
2894.870041868516
 20
-428.1532088763692
 30
0.0
 11
2964.670041868516
 21
-428.1532088763692
 31
0.0
  0
SPLINE
  5
173
330
1F
100
AcDbEntity
  8
incisione
100
AcDbSpline
210
0.0
220
0.0
230
1.0
 70
    24
 71
     2
 72
     6
 73
     3
 74
     0
 42
0.000000001
 43
0.0000000001
 40
3.0
 40
3.0
 40
3.0
 40
4.0
 40
4.0
 40
4.0
 10
2916.339060897221
 20
-461.9039742793382
 30
0.0
 10
2917.216102946125
 20
-461.9039742793382
 30
0.0
 10
2918.093144995029
 20
-461.9039742793382
 30
0.0
  0
SPLINE
  5
174
330
1F
100
AcDbEntity
  8
incisione
100
AcDbSpline
210
0.0
220
0.0
230
1.0
 70
    24
 71
     2
 72
     6
 73
     3
 74
     0
 42
0.000000001
 43
0.0000000001
 40
4.0
 40
4.0
 40
4.0
 40
5.0
 40
5.0
 40
5.0
 10
2918.093144995029
 20
-461.9039742793382
 30
0.0
 10
2918.093144995029
 20
-462.279351883411
 30
0.0
 10
2918.093144995029
 20
-462.6547294874838
 30
0.0
  0
SPLINE
  5
175
330
1F
100
AcDbEntity
  8
incisione
100
AcDbSpline
210
0.0
220
0.0
230
1.0
 70
    24
 71
     2
 72
     6
 73
     3
 74
     0
 42
0.000000001
 43
0.0000000001
 40
5.0
 40
5.0
 40
5.0
 40
6.0
 40
6.0
 40
6.0
 10
2918.093144995029
 20
-462.6547294874838
 30
0.0
 10
2917.216102946125
 20
-462.6547294874838
 30
0.0
 10
2916.339060897221
 20
-462.6547294874838
 30
0.0
  0
SPLINE
  5
176
330
1F
100
AcDbEntity
  8
incisione
100
AcDbSpline
210
0.0
220
0.0
230
1.0
 70
    24
 71
     2
 72
     6
 73
     3
 74
     0
 42
0.000000001
 43
0.0000000001
 40
6.0
 40
6.0
 40
6.0
 40
7.0
 40
7.0
 40
7.0
 10
2916.339060897221
 20
-462.6547294874838
 30
0.0
 10
2916.339060897221
 20
-462.279351883411
 30
0.0
 10
2916.339060897221
 20
-461.9039742793382
 30
0.0
  0
LINE
  5
177
330
1F
100
AcDbEntity
  8
taglio n°3
100
AcDbLine
 10
3109.097611318842
 20
-354.6916573162043
 30
-0.000000000003823
 11
3103.883904982029
 21
-365.9973977268764
 31
-0.0000000000033578
  0
LINE
  5
178
330
1F
100
AcDbEntity
  8
taglio n°3
100
AcDbLine
 10
3103.883904982029
 20
-365.9973977268764
 30
-0.0000000000033578
 11
3149.999472361334
 21
-365.9973977268767
 31
-0.0000000000044675
  0
LINE
  5
179
330
1F
100
AcDbEntity
  8
taglio n°3
100
AcDbLine
 10
3149.999472361334
 20
-365.9973977268767
 30
-0.0000000000044675
 11
3149.999472361334
 21
-265.9973977268778
 31
-0.0000000000040696
  0
LINE
  5
17A
330
1F
100
AcDbEntity
  8
taglio n°3
100
AcDbLine
 10
3149.999472361334
 20
-265.9973977268778
 30
-0.0000000000040696
 11
3142.190446964293
 21
-282.9309970314498
 31
-0.0000000000041377
  0
LINE
  5
17B
330
1F
100
AcDbEntity
  8
taglio n°3
100
AcDbLine
 10
3142.190446964293
 20
-282.9309970314498
 30
-0.0000000000041377
 11
3138.73969888714
 21
-281.3396649768406
 31
-0.0000000000042787
  0
LINE
  5
17C
330
1F
100
AcDbEntity
  8
taglio n°3
100
AcDbLine
 10
3138.73969888714
 20
-281.3396649768406
 30
-0.0000000000042787
 11
3149.125234401433
 21
-258.8189933154233
 31
-0.0000000000042787
  0
LINE
  5
17D
330
1F
100
AcDbEntity
  8
taglio n°3
100
AcDbLine
 10
3149.125234401433
 20
-258.8189933154233
 30
-0.0000000000042787
 11
3152.575982478586
 21
-260.4103253700328
 31
-0.0000000000041904
  0
LINE
  5
17E
330
1F
100
AcDbEntity
  8
taglio n°3
100
AcDbLine
 10
3152.575982478586
 20
-260.4103253700328
 30
-0.0000000000041904
 11
3163.129026630206
 21
-237.5264170689152
 31
-0.0000000000042355
  0
LINE
  5
17F
330
1F
100
AcDbEntity
  8
taglio n°3
100
AcDbLine
 10
3163.129026630206
 20
-237.5264170689152
 30
-0.0000000000042355
 11
3159.678278553053
 21
-235.935085014306
 31
-0.0000000000042787
  0
LINE
  5
180
330
1F
100
AcDbEntity
  8
taglio n°3
100
AcDbLine
 10
3159.678278553053
 20
-235.935085014306
 30
-0.0000000000042787
 11
3170.105691226678
 21
-213.3236041929636
 31
-0.0000000000042787
  0
LINE
  5
181
330
1F
100
AcDbEntity
  8
taglio n°3
100
AcDbLine
 10
3170.105691226678
 20
-213.3236041929636
 30
-0.0000000000042787
 11
3170.144315005934
 21
-213.2398498743
 31
-0.0000000000042253
  0
LINE
  5
182
330
1F
100
AcDbEntity
  8
taglio n°3
100
AcDbLine
 10
3170.144315005934
 20
-213.2398498743
 30
-0.0000000000042253
 11
3165.131325972505
 21
-213.2398498742998
 31
-0.0000000000041549
  0
ARC
  5
183
330
1F
100
AcDbEntity
  8
taglio n°3
100
AcDbCircle
 10
3165.131325972508
 20
-216.2398498743028
 30
-0.0000000000041387
 40
3.000000000002956
100
AcDbArc
 50
90.00000000005213
 51
129.6949343510294
  0
LINE
  5
184
330
1F
100
AcDbEntity
  8
taglio n°3
100
AcDbLine
 10
3163.215226600493
 20
-213.9314817934751
 30
-0.0000000000041265
 11
3102.232862591933
 21
-264.5509087173368
 31
-0.0000000000032738
  0
ARC
  5
185
330
1F
100
AcDbEntity
  8
taglio n°3
100
AcDbCircle
 10
3104.148961963944
 20
-266.8592767981613
 30
-0.0000000000033258
 40
2.999999999998378
100
AcDbArc
 50
129.6949343510211
 51
203.7942193590244
  0
LINE
  5
186
330
1F
100
AcDbEntity
  8
taglio n°3
100
AcDbLine
 10
3101.403960831837
 20
-268.0696357468711
 30
-0.0000000000032738
 11
3112.295561019393
 21
-292.7709484253762
 31
-0.000000000003558
  0
LINE
  5
187
330
1F
100
AcDbEntity
  8
taglio n°3
100
AcDbLine
 10
3112.295561019393
 20
-292.7709484253762
 30
-0.000000000003558
 11
3114.757103868078
 21
-298.3535385434357
 31
-0.0000000000036149
  0
LINE
  5
188
330
1F
100
AcDbEntity
  8
taglio n°3
100
AcDbLine
 10
3114.757103868078
 20
-298.3535385434357
 30
-0.0000000000036149
 11
3122.536846689552
 21
-315.9973977268767
 31
-0.0000000000038138
  0
LINE
  5
189
330
1F
100
AcDbEntity
  8
taglio n°3
100
AcDbLine
 10
3122.536846689552
 20
-315.9973977268767
 30
-0.0000000000038138
 11
3118.876845180073
 21
-317.6112096584902
 31
-0.000000000003757
  0
LINE
  5
18A
330
1F
100
AcDbEntity
  8
taglio n°3
100
AcDbLine
 10
3118.876845180073
 20
-317.6112096584902
 30
-0.000000000003757
 11
3114.757103868164
 21
-308.2679527864379
 31
-0.0000000000036433
  0
LINE
  5
18B
330
1F
100
AcDbEntity
  8
taglio n°3
100
AcDbLine
 10
3114.757103868164
 20
-308.2679527864379
 30
-0.0000000000036433
 11
3114.757103868401
 21
-335.531537521013
 31
-0.000000000003757
  0
SPLINE
  5
18C
330
1F
100
AcDbEntity
  8
taglio n°3
100
AcDbSpline
210
0.0
220
0.0
230
1.0
 70
    12
 71
     2
 72
     8
 73
     5
 74
     0
 42
0.000000001
 43
0.0000000001
 40
2472.764123198141
 40
2472.764123198141
 40
2472.764123198141
 40
2476.952912903585
 40
2476.952912903585
 40
2481.141703607714
 40
2481.141703607714
 40
2481.141703607714
 10
3114.757103868401
 20
-335.531537521013
 30
-0.000000000003757
 41
1.0
 10
3114.757102767213
 20
-337.8409392335542
 30
-0.0000000000037492
 41
0.8660255783189005
 10
3112.757103868431
 20
-338.9956391361679
 30
-0.000000000003733
 41
1.000000127768071
 10
3110.757104419045
 20
-340.1503393566732
 30
-0.000000000003701
 41
0.8660255463768712
 10
3108.757103868431
 20
-338.9956391362025
 30
-0.0000000000036504
 41
1.000000063884013
  0
LINE
  5
18D
330
1F
100
AcDbEntity
  8
taglio n°3
100
AcDbLine
 10
3108.757103868431
 20
-338.9956391362025
 30
-0.0000000000036504
 11
3074.922981262036
 21
-319.4614993419978
 31
-0.0000000000030251
  0
ARC
  5
18E
330
1F
100
AcDbEntity
  8
taglio n°3
100
AcDbCircle
 10
3076.922981262005
 20
-315.9973977268428
 30
-0.0000000000030536
 40
3.999999999999637
100
AcDbArc
 50
120.0000000004922
 51
240.0000000005012
  0
LINE
  5
18F
330
1F
100
AcDbEntity
  8
taglio n°3
100
AcDbLine
 10
3074.922981261976
 20
-312.5332961117226
 30
-0.0000000000029967
 11
3108.173238264004
 21
-293.3362512805913
 31
-0.0000000000034728
  0
LINE
  5
190
330
1F
100
AcDbEntity
  8
taglio n°3
100
AcDbLine
 10
3108.173238264004
 20
-293.3362512805913
 30
-0.0000000000034728
 11
3096.118661798021
 21
-265.9973977268771
 31
-0.0000000000031601
  0
LINE
  5
191
330
1F
100
AcDbEntity
  8
taglio n°3
100
AcDbLine
 10
3096.118661798023
 20
-265.9973977268783
 30
-0.0000000000016661
 11
3080.459067079679
 21
-265.997397726878
 31
-0.0000000000017443
  0
LINE
  5
192
330
1F
100
AcDbEntity
  8
taglio n°3
100
AcDbLine
 10
3080.459067079679
 20
-265.997397726878
 30
-0.0000000000017443
 11
3080.459067079679
 21
-269.997397726878
 31
-0.000000000001745
  0
LINE
  5
193
330
1F
100
AcDbEntity
  8
taglio n°3
100
AcDbLine
 10
3080.459067079679
 20
-269.997397726878
 30
-0.000000000001745
 11
3065.659067079679
 21
-269.997397726878
 31
-0.0000000000017458
  0
LINE
  5
194
330
1F
100
AcDbEntity
  8
taglio n°3
100
AcDbLine
 10
3065.659067079679
 20
-269.997397726878
 30
-0.0000000000017458
 11
3065.659067079679
 21
-265.997397726878
 31
-0.0000000000017458
  0
LINE
  5
195
330
1F
100
AcDbEntity
  8
taglio n°3
100
AcDbLine
 10
3065.659067079679
 20
-265.997397726878
 30
-0.0000000000017458
 11
3045.459067079679
 21
-265.9973977268783
 31
-0.0000000000017458
  0
LINE
  5
196
330
1F
100
AcDbEntity
  8
taglio n°3
100
AcDbLine
 10
3045.459067079679
 20
-265.9973977268783
 30
-0.0000000000017458
 11
3045.459067079679
 21
-269.9973977268783
 31
-0.0000000000017531
  0
LINE
  5
197
330
1F
100
AcDbEntity
  8
taglio n°3
100
AcDbLine
 10
3045.459067079679
 20
-269.9973977268783
 30
-0.0000000000017531
 11
3030.659067079679
 21
-269.9973977268783
 31
-0.000000000003934
  0
LINE
  5
198
330
1F
100
AcDbEntity
  8
taglio n°3
100
AcDbLine
 10
3030.659067079679
 20
-269.9973977268783
 30
-0.000000000003934
 11
3030.659067079679
 21
-265.9973977268783
 31
-0.0000000000039414
  0
LINE
  5
199
330
1F
100
AcDbEntity
  8
taglio n°3
100
AcDbLine
 10
3030.659067079679
 20
-265.9973977268783
 30
-0.0000000000039414
 11
3014.999472361335
 21
-265.9973977268783
 31
-0.0000000000017959
  0
LINE
  5
19A
330
1F
100
AcDbEntity
  8
taglio n°3
100
AcDbLine
 10
3014.999472361335
 20
-265.9973977268783
 30
-0.0000000000017959
 11
3014.999472361335
 21
-365.9973977268764
 31
-0.0000000000021654
  0
LINE
  5
19B
330
1F
100
AcDbEntity
  8
taglio n°3
100
AcDbLine
 10
3014.999472361335
 20
-365.9973977268764
 30
-0.0000000000021654
 11
3032.725505473185
 21
-365.9973977268764
 31
-0.0000000000035292
  0
LINE
  5
19C
330
1F
100
AcDbEntity
  8
taglio n°3
100
AcDbLine
 10
3032.725505473185
 20
-365.9973977268764
 30
-0.0000000000035292
 11
3032.725505473185
 21
-361.9973977268764
 31
-0.0000000000040716
  0
LINE
  5
19D
330
1F
100
AcDbEntity
  8
taglio n°3
100
AcDbLine
 10
3032.725505473185
 20
-361.9973977268764
 30
-0.0000000000040716
 11
3047.525505473185
 21
-361.9973977268764
 31
-0.0000000000024403
  0
LINE
  5
19E
330
1F
100
AcDbEntity
  8
taglio n°3
100
AcDbLine
 10
3047.525505473185
 20
-361.9973977268764
 30
-0.0000000000024403
 11
3047.525505473185
 21
-365.9973977268764
 31
-0.0000000000024329
  0
LINE
  5
19F
330
1F
100
AcDbEntity
  8
taglio n°3
100
AcDbLine
 10
3047.525505473185
 20
-365.9973977268764
 30
-0.0000000000024329
 11
3067.725505473185
 21
-365.9973977268764
 31
-0.0000000000024329
  0
LINE
  5
1A0
330
1F
100
AcDbEntity
  8
taglio n°3
100
AcDbLine
 10
3067.725505473185
 20
-365.9973977268764
 30
-0.0000000000024329
 11
3067.725505473185
 21
-361.9973977268764
 31
-0.0000000000024329
  0
LINE
  5
1A1
330
1F
100
AcDbEntity
  8
taglio n°3
100
AcDbLine
 10
3067.725505473185
 20
-361.9973977268764
 30
-0.0000000000024329
 11
3082.525505473185
 21
-361.9973977268764
 31
-0.0000000000024329
  0
LINE
  5
1A2
330
1F
100
AcDbEntity
  8
taglio n°3
100
AcDbLine
 10
3082.525505473185
 20
-361.9973977268764
 30
-0.0000000000024329
 11
3082.525505473185
 21
-365.9973977268764
 31
-0.0000000000024329
  0
LINE
  5
1A3
330
1F
100
AcDbEntity
  8
taglio n°3
100
AcDbLine
 10
3082.525505473185
 20
-365.9973977268764
 30
-0.0000000000024329
 11
3099.699305099006
 21
-365.9973977268764
 31
-0.0000000000029508
  0
LINE
  5
1A4
330
1F
100
AcDbEntity
  8
taglio n°3
100
AcDbLine
 10
3099.699305099006
 20
-365.9973977268764
 30
-0.0000000000029508
 11
3100.433156904878
 21
-364.4060656722665
 31
-0.0000000000042787
  0
LINE
  5
1A5
330
1F
100
AcDbEntity
  8
taglio n°3
100
AcDbLine
 10
3100.433156904878
 20
-364.4060656722665
 30
-0.0000000000042787
 11
3105.64686324169
 21
-353.1003252615953
 31
-0.0000000000042787
  0
LINE
  5
1A6
330
1F
100
AcDbEntity
  8
taglio n°3
100
AcDbLine
 10
3105.64686324169
 20
-353.1003252615953
 30
-0.0000000000042787
 11
3109.097611318842
 21
-354.6916573162043
 31
-0.000000000003823
  0
SPLINE
  5
1A7
330
1F
100
AcDbEntity
  8
incisione
100
AcDbSpline
210
0.0
220
0.0
230
1.0
 70
    24
 71
     2
 72
     6
 73
     3
 74
     0
 42
0.000000001
 43
0.0000000001
 40
3.0
 40
3.0
 40
3.0
 40
4.0
 40
4.0
 40
4.0
 10
2917.089816105367
 20
-462.8948389113127
 30
0.0
 10
2917.089816105367
 20
-463.7718809602167
 30
0.0
 10
2917.089816105367
 20
-464.6489230091206
 30
0.0
  0
SPLINE
  5
1A8
330
1F
100
AcDbEntity
  8
incisione
100
AcDbSpline
210
0.0
220
0.0
230
1.0
 70
    24
 71
     2
 72
     6
 73
     3
 74
     0
 42
0.000000001
 43
0.0000000001
 40
4.0
 40
4.0
 40
4.0
 40
5.0
 40
5.0
 40
5.0
 10
2917.089816105367
 20
-464.6489230091206
 30
0.0
 10
2916.714438501294
 20
-464.6489230091206
 30
0.0
 10
2916.339060897221
 20
-464.6489230091206
 30
0.0
  0
SPLINE
  5
1A9
330
1F
100
AcDbEntity
  8
incisione
100
AcDbSpline
210
0.0
220
0.0
230
1.0
 70
    24
 71
     2
 72
     6
 73
     3
 74
     0
 42
0.000000001
 43
0.0000000001
 40
5.0
 40
5.0
 40
5.0
 40
6.0
 40
6.0
 40
6.0
 10
2916.339060897221
 20
-464.6489230091206
 30
0.0
 10
2916.339060897221
 20
-463.7718809602167
 30
0.0
 10
2916.339060897221
 20
-462.8948389113127
 30
0.0
  0
SPLINE
  5
1AA
330
1F
100
AcDbEntity
  8
incisione
100
AcDbSpline
210
0.0
220
0.0
230
1.0
 70
    24
 71
     2
 72
     6
 73
     3
 74
     0
 42
0.000000001
 43
0.0000000001
 40
6.0
 40
6.0
 40
6.0
 40
7.0
 40
7.0
 40
7.0
 10
2916.339060897221
 20
-462.8948389113127
 30
0.0
 10
2916.714438501294
 20
-462.8948389113127
 30
0.0
 10
2917.089816105367
 20
-462.8948389113127
 30
0.0
  0
LINE
  5
1AB
330
1F
100
AcDbEntity
  8
taglio n°3
100
AcDbLine
 10
3014.999472361335
 20
-365.9973977268764
 30
0.0000000000000284
 11
2997.273439249486
 21
-365.9973977268764
 31
-0.0000000000013354
  0
LINE
  5
1AC
330
1F
100
AcDbEntity
  8
taglio n°3
100
AcDbLine
 10
2997.273439249486
 20
-365.9973977268764
 30
-0.0000000000013354
 11
2997.273439249486
 21
-361.9973977268764
 31
-0.0000000000018778
  0
LINE
  5
1AD
330
1F
100
AcDbEntity
  8
taglio n°3
100
AcDbLine
 10
2997.273439249486
 20
-361.9973977268764
 30
-0.0000000000018778
 11
2982.473439249486
 21
-361.9973977268764
 31
-0.0000000000002465
  0
LINE
  5
1AE
330
1F
100
AcDbEntity
  8
taglio n°3
100
AcDbLine
 10
2982.473439249486
 20
-361.9973977268764
 30
-0.0000000000002465
 11
2982.473439249486
 21
-365.9973977268764
 31
-0.0000000000002391
  0
LINE
  5
1AF
330
1F
100
AcDbEntity
  8
taglio n°3
100
AcDbLine
 10
2982.473439249486
 20
-365.9973977268764
 30
-0.0000000000002391
 11
2962.273439249486
 21
-365.9973977268764
 31
-0.0000000000002391
  0
LINE
  5
1B0
330
1F
100
AcDbEntity
  8
taglio n°3
100
AcDbLine
 10
2962.273439249486
 20
-365.9973977268764
 30
-0.0000000000002391
 11
2962.273439249486
 21
-361.9973977268764
 31
-0.0000000000002391
  0
LINE
  5
1B1
330
1F
100
AcDbEntity
  8
taglio n°3
100
AcDbLine
 10
2962.273439249486
 20
-361.9973977268764
 30
-0.0000000000002391
 11
2947.473439249486
 21
-361.9973977268764
 31
-0.0000000000002391
  0
LINE
  5
1B2
330
1F
100
AcDbEntity
  8
taglio n°3
100
AcDbLine
 10
2947.473439249486
 20
-361.9973977268764
 30
-0.0000000000002391
 11
2947.473439249486
 21
-365.9973977268764
 31
-0.0000000000002391
  0
LINE
  5
1B3
330
1F
100
AcDbEntity
  8
taglio n°3
100
AcDbLine
 10
2947.473439249486
 20
-365.9973977268764
 30
-0.0000000000002391
 11
2930.299639623664
 21
-365.9973977268764
 31
0.0000000000002587
  0
LINE
  5
1B4
330
1F
100
AcDbEntity
  8
taglio n°3
100
AcDbLine
 10
2930.299639623664
 20
-365.9973977268764
 30
0.0000000000002587
 11
2929.565787817792
 21
-364.4060656722665
 31
-0.0000000000000534
  0
LINE
  5
1B5
330
1F
100
AcDbEntity
  8
taglio n°3
100
AcDbLine
 10
2929.565787817792
 20
-364.4060656722665
 30
-0.0000000000000534
 11
2924.352081480979
 21
-353.1003252615956
 31
-0.0000000000000534
  0
LINE
  5
1B6
330
1F
100
AcDbEntity
  8
taglio n°3
100
AcDbLine
 10
2924.352081480979
 20
-353.1003252615956
 30
-0.0000000000000534
 11
2920.901333403827
 21
-354.6916573162048
 31
0.0000000000000348
  0
LINE
  5
1B7
330
1F
100
AcDbEntity
  8
taglio n°3
100
AcDbLine
 10
2920.901333403827
 20
-354.6916573162048
 30
0.0000000000000348
 11
2926.11503974064
 21
-365.9973977268764
 31
-0.0000000000001483
  0
LINE
  5
1B8
330
1F
100
AcDbEntity
  8
taglio n°3
100
AcDbLine
 10
2926.11503974064
 20
-365.9973977268764
 30
-0.0000000000001483
 11
2879.999472361336
 21
-365.9973977268764
 31
-0.0000000000010658
  0
LINE
  5
1B9
330
1F
100
AcDbEntity
  8
taglio n°3
100
AcDbLine
 10
2879.999472361336
 20
-365.9973977268764
 30
-0.0000000000010658
 11
2879.999472361335
 21
-265.9973977268778
 31
0.000000000000092
  0
LINE
  5
1BA
330
1F
100
AcDbEntity
  8
taglio n°3
100
AcDbLine
 10
2879.999472361335
 20
-265.9973977268778
 30
0.000000000000092
 11
2887.808497758377
 21
-282.93099703145
 31
0.0000000000000876
  0
LINE
  5
1BB
330
1F
100
AcDbEntity
  8
taglio n°3
100
AcDbLine
 10
2887.808497758377
 20
-282.93099703145
 30
0.0000000000000876
 11
2891.259245835529
 21
-281.3396649768406
 31
-0.0000000000000534
  0
LINE
  5
1BC
330
1F
100
AcDbEntity
  8
taglio n°3
100
AcDbLine
 10
2891.259245835529
 20
-281.3396649768406
 30
-0.0000000000000534
 11
2880.873710321237
 21
-258.8189933154235
 31
-0.0000000000000534
  0
LINE
  5
1BD
330
1F
100
AcDbEntity
  8
taglio n°3
100
AcDbLine
 10
2880.873710321237
 20
-258.8189933154235
 30
-0.0000000000000534
 11
2877.422962244084
 21
-260.4103253700328
 31
-0.0000000000000534
  0
SPLINE
  5
1BE
330
1F
100
AcDbEntity
  8
incisione
100
AcDbSpline
210
0.0
220
0.0
230
1.0
 70
    24
 71
     2
 72
     6
 73
     3
 74
     0
 42
0.000000001
 43
0.0000000001
 40
18.0
 40
18.0
 40
18.0
 40
19.0
 40
19.0
 40
19.0
 10
2914.46144006428
 20
-464.6489230091206
 30
0.0
 10
2914.148197592056
 20
-464.6489230091206
 30
0.0
 10
2913.834955119832
 20
-464.6489230091206
 30
0.0
  0
SPLINE
  5
1BF
330
1F
100
AcDbEntity
  8
incisione
100
AcDbSpline
210
0.0
220
0.0
230
1.0
 70
    24
 71
     2
 72
     6
 73
     3
 74
     0
 42
0.000000001
 43
0.0000000001
 40
19.0
 40
19.0
 40
19.0
 40
20.0
 40
20.0
 40
20.0
 10
2913.834955119832
 20
-464.6489230091206
 30
0.0
 10
2913.834955119832
 20
-464.2735454050478
 30
0.0
 10
2913.834955119832
 20
-463.898167800975
 30
0.0
  0
LINE
  5
1C0
330
1F
100
AcDbEntity
  8
incisione
100
AcDbLine
 10
2913.834955119832
 20
-463.898167800975
 30
0.0
 11
2914.46144006428
 21
-463.898167800975
 31
0.0
  0
SPLINE
  5
1C1
330
1F
100
AcDbEntity
  8
incisione
100
AcDbSpline
210
0.0
220
0.0
230
1.0
 70
     8
 71
     2
 72
     8
 73
     5
 74
     0
 42
0.000000001
 43
0.0000000001
 40
21.0
 40
21.0
 40
21.0
 40
22.0
 40
22.0
 40
23.0
 40
23.0
 40
23.0
 10
2914.46144006428
 20
-463.898167800975
 30
0.0
 10
2914.624568010207
 20
-463.898167800975
 30
0.0
 10
2914.731059245568
 20
-463.7885604116932
 30
0.0
 10
2914.83755048093
 20
-463.6789530224113
 30
0.0
 10
2914.83755048093
 20
-463.5224236116171
 30
0.0
  0
SPLINE
  5
1C2
330
1F
100
AcDbEntity
  8
incisione
100
AcDbSpline
210
0.0
220
0.0
230
1.0
 70
    24
 71
     2
 72
     6
 73
     3
 74
     0
 42
0.000000001
 43
0.0000000001
 40
23.0
 40
23.0
 40
23.0
 40
24.0
 40
24.0
 40
24.0
 10
2914.83755048093
 20
-463.5224236116171
 30
0.0
 10
2914.83755048093
 20
-463.2091811393926
 30
0.0
 10
2914.83755048093
 20
-462.8959386671681
 30
0.0
  0
SPLINE
  5
1C3
330
1F
100
AcDbEntity
  8
incisione
100
AcDbSpline
210
0.0
220
0.0
230
1.0
 70
    24
 71
     2
 72
     6
 73
     3
 74
     0
 42
0.000000001
 43
0.0000000001
 40
24.0
 40
24.0
 40
24.0
 40
25.0
 40
25.0
 40
25.0
 10
2914.83755048093
 20
-462.8959386671681
 30
0.0
 10
2915.212928085003
 20
-462.8959386671681
 30
0.0
 10
2915.588305689076
 20
-462.8959386671681
 30
0.0
  0
LINE
  5
1C4
330
1F
100
AcDbEntity
  8
incisione
100
AcDbLine
 10
2915.588305689076
 20
-462.8959386671681
 30
0.0
 11
2915.588305689076
 21
-463.5224236116171
 31
0.0
  0
SPLINE
  5
1C5
330
1F
100
AcDbEntity
  8
incisione
100
AcDbSpline
210
0.0
220
0.0
230
1.0
 70
     8
 71
     2
 72
    12
 73
     9
 74
     0
 42
0.000000001
 43
0.0000000001
 40
26.0
 40
26.0
 40
26.0
 40
27.0
 40
27.0
 40
28.0
 40
28.0
 40
29.0
 40
29.0
 40
30.0
 40
30.0
 40
30.0
 10
2915.588305689076
 20
-463.5224236116171
 30
0.0
 10
2915.588305689076
 20
-463.7541019318816
 30
0.0
 10
2915.500693237905
 20
-463.9606695181085
 30
0.0
 10
2915.413080786734
 20
-464.1672371043354
 30
0.0
 10
2915.259850464509
 20
-464.3204674265602
 30
0.0
 10
2915.106620142284
 20
-464.4736977487851
 30
0.0
 10
2914.899869263415
 20
-464.5613103789528
 30
0.0
 10
2914.693118384545
 20
-464.6489230091206
 30
0.0
 10
2914.46144006428
 20
-464.6489230091206
 30
0.0
  0
SPLINE
  5
1C6
330
1F
100
AcDbEntity
  8
incisione
100
AcDbSpline
210
0.0
220
0.0
230
1.0
 70
    24
 71
     2
 72
     6
 73
     3
 74
     0
 42
0.000000001
 43
0.0000000001
 40
18.0
 40
18.0
 40
18.0
 40
19.0
 40
19.0
 40
19.0
 10
2911.834529648348
 20
-463.5224236116171
 30
0.0
 10
2911.834529648348
 20
-463.2091811393926
 30
0.0
 10
2911.834529648348
 20
-462.8959386671681
 30
0.0
  0
SPLINE
  5
1C7
330
1F
100
AcDbEntity
  8
incisione
100
AcDbSpline
210
0.0
220
0.0
230
1.0
 70
    24
 71
     2
 72
     6
 73
     3
 74
     0
 42
0.000000001
 43
0.0000000001
 40
19.0
 40
19.0
 40
19.0
 40
20.0
 40
20.0
 40
20.0
 10
2911.834529648348
 20
-462.8959386671681
 30
0.0
 10
2912.20990725242
 20
-462.8959386671681
 30
0.0
 10
2912.585284856493
 20
-462.8959386671681
 30
0.0
  0
LINE
  5
1C8
330
1F
100
AcDbEntity
  8
incisione
100
AcDbLine
 10
2912.585284856493
 20
-462.8959386671681
 30
0.0
 11
2912.585284856493
 21
-463.5224236116171
 31
0.0
  0
SPLINE
  5
1C9
330
1F
100
AcDbEntity
  8
incisione
100
AcDbSpline
210
0.0
220
0.0
230
1.0
 70
     8
 71
     2
 72
     8
 73
     5
 74
     0
 42
0.000000001
 43
0.0000000001
 40
21.0
 40
21.0
 40
21.0
 40
22.0
 40
22.0
 40
23.0
 40
23.0
 40
23.0
 10
2912.585284856493
 20
-463.5224236116171
 30
0.0
 10
2912.585284856493
 20
-463.6789530224113
 30
0.0
 10
2912.694892245775
 20
-463.7885604116932
 30
0.0
 10
2912.804499635057
 20
-463.898167800975
 30
0.0
 10
2912.961029045851
 20
-463.898167800975
 30
0.0
  0
SPLINE
  5
1CA
330
1F
100
AcDbEntity
  8
incisione
100
AcDbSpline
210
0.0
220
0.0
230
1.0
 70
    24
 71
     2
 72
     6
 73
     3
 74
     0
 42
0.000000001
 43
0.0000000001
 40
23.0
 40
23.0
 40
23.0
 40
24.0
 40
24.0
 40
24.0
 10
2912.961029045851
 20
-463.898167800975
 30
0.0
 10
2913.274271518076
 20
-463.898167800975
 30
0.0
 10
2913.5875139903
 20
-463.898167800975
 30
0.0
  0
SPLINE
  5
1CB
330
1F
100
AcDbEntity
  8
incisione
100
AcDbSpline
210
0.0
220
0.0
230
1.0
 70
    24
 71
     2
 72
     6
 73
     3
 74
     0
 42
0.000000001
 43
0.0000000001
 40
24.0
 40
24.0
 40
24.0
 40
25.0
 40
25.0
 40
25.0
 10
2913.5875139903
 20
-463.898167800975
 30
0.0
 10
2913.5875139903
 20
-464.2735454050478
 30
0.0
 10
2913.5875139903
 20
-464.6489230091206
 30
0.0
  0
LINE
  5
1CC
330
1F
100
AcDbEntity
  8
incisione
100
AcDbLine
 10
2913.5875139903
 20
-464.6489230091206
 30
0.0
 11
2912.961029045851
 21
-464.6489230091206
 31
0.0
  0
SPLINE
  5
1CD
330
1F
100
AcDbEntity
  8
incisione
100
AcDbSpline
210
0.0
220
0.0
230
1.0
 70
     8
 71
     2
 72
    12
 73
     9
 74
     0
 42
0.000000001
 43
0.0000000001
 40
26.0
 40
26.0
 40
26.0
 40
27.0
 40
27.0
 40
28.0
 40
28.0
 40
29.0
 40
29.0
 40
30.0
 40
30.0
 40
30.0
 10
2912.961029045851
 20
-464.6489230091206
 30
0.0
 10
2912.729350725587
 20
-464.6489230091206
 30
0.0
 10
2912.52278313936
 20
-464.5613103789528
 30
0.0
 10
2912.316215553133
 20
-464.4736977487851
 30
0.0
 10
2912.162985230908
 20
-464.3204674265602
 30
0.0
 10
2912.009754908684
 20
-464.1672371043354
 30
0.0
 10
2911.922142278515
 20
-463.9606695181085
 30
0.0
 10
2911.834529648348
 20
-463.7541019318816
 30
0.0
 10
2911.834529648348
 20
-463.5224236116171
 30
0.0
  0
LINE
  5
1CE
330
1F
100
AcDbEntity
  8
taglio n°3
100
AcDbLine
 10
2866.869918092464
 20
-237.5264170689152
 30
0.000000000000024
 11
2877.422962244084
 21
-260.4103253700328
 31
0.0000000000000758
  0
LINE
  5
1CF
330
1F
100
AcDbEntity
  8
taglio n°3
100
AcDbLine
 10
2877.422962244084
 20
-260.4103253700328
 30
0.0000000000000758
 11
2866.869918092464
 21
-237.5264170689152
 31
-0.0000000000000102
  0
LINE
  5
1D0
330
1F
100
AcDbEntity
  8
taglio n°3
100
AcDbLine
 10
2866.869918092464
 20
-237.5264170689152
 30
-0.0000000000000102
 11
2870.320666169616
 21
-235.935085014306
 31
-0.0000000000000534
  0
LINE
  5
1D1
330
1F
100
AcDbEntity
  8
taglio n°3
100
AcDbLine
 10
2870.320666169616
 20
-235.935085014306
 30
-0.0000000000000534
 11
2859.893253495992
 21
-213.3236041929638
 31
-0.0000000000000534
  0
LINE
  5
1D2
330
1F
100
AcDbEntity
  8
taglio n°3
100
AcDbLine
 10
2859.893253495992
 20
-213.3236041929638
 30
-0.0000000000000534
 11
2859.854629716735
 21
-213.2398498743
 31
0.0
  0
LINE
  5
1D3
330
1F
100
AcDbEntity
  8
taglio n°3
100
AcDbLine
 10
2859.854629716735
 20
-213.2398498743
 30
0.0
 11
2864.867618750165
 21
-213.2398498742996
 31
0.0
  0
ARC
  5
1D4
330
1F
100
AcDbEntity
  8
taglio n°3
100
AcDbCircle
 10
2864.867618750165
 20
-216.2398498742984
 30
-0.0000000000003326
 40
2.999999999998863
100
AcDbArc
 50
50.30506564894112
 51
90.0
  0
LINE
  5
1D5
330
1F
100
AcDbEntity
  8
taglio n°3
100
AcDbLine
 10
2866.783718122178
 20
-213.9314817934749
 30
0.0
 11
2927.766082130738
 21
-264.5509087173361
 31
0.0
  0
ARC
  5
1D6
330
1F
100
AcDbEntity
  8
taglio n°3
100
AcDbCircle
 10
2925.849982758725
 20
-266.8592767981611
 30
0.0000000000000315
 40
3.000000000000034
100
AcDbArc
 50
336.2057806409886
 51
50.30506564895775
  0
LINE
  5
1D7
330
1F
100
AcDbEntity
  8
taglio n°3
100
AcDbLine
 10
2928.594983890834
 20
-268.069635746871
 30
0.0
 11
2907.462098033118
 21
-315.9973977268774
 31
0.0000000000000568
  0
LINE
  5
1D8
330
1F
100
AcDbEntity
  8
taglio n°3
100
AcDbLine
 10
2907.462098033118
 20
-315.9973977268774
 30
0.0000000000000568
 11
2911.122099542596
 21
-317.6112096584909
 31
0.0000000000000568
  0
LINE
  5
1D9
330
1F
100
AcDbEntity
  8
taglio n°3
100
AcDbLine
 10
2911.122099542596
 20
-317.6112096584909
 30
0.0000000000000568
 11
2933.880282924648
 21
-265.9973977268783
 31
-0.0000000000038964
  0
LINE
  5
1DA
330
1F
100
AcDbEntity
  8
taglio n°3
100
AcDbLine
 10
2933.880282924648
 20
-265.9973977268783
 30
-0.0000000000038964
 11
2949.539877642992
 21
-265.997397726878
 31
-0.0000000000078709
  0
LINE
  5
1DB
330
1F
100
AcDbEntity
  8
taglio n°3
100
AcDbLine
 10
2949.539877642992
 20
-265.997397726878
 30
-0.0000000000078709
 11
2949.539877642992
 21
-269.997397726878
 31
-0.0000000000078717
  0
LINE
  5
1DC
330
1F
100
AcDbEntity
  8
taglio n°3
100
AcDbLine
 10
2949.539877642992
 20
-269.997397726878
 30
-0.0000000000078717
 11
2964.339877642991
 21
-269.997397726878
 31
-0.0000000000078724
  0
LINE
  5
1DD
330
1F
100
AcDbEntity
  8
taglio n°3
100
AcDbLine
 10
2964.339877642991
 20
-269.997397726878
 30
-0.0000000000078724
 11
2964.339877642991
 21
-265.997397726878
 31
-0.0000000000078724
  0
LINE
  5
1DE
330
1F
100
AcDbEntity
  8
taglio n°3
100
AcDbLine
 10
2964.339877642991
 20
-265.997397726878
 30
-0.0000000000078724
 11
2984.539877642992
 21
-265.9973977268783
 31
-0.0000000000078724
  0
LINE
  5
1DF
330
1F
100
AcDbEntity
  8
taglio n°3
100
AcDbLine
 10
2984.539877642992
 20
-265.9973977268783
 30
-0.0000000000078724
 11
2984.539877642992
 21
-269.9973977268783
 31
-0.0000000000078798
  0
LINE
  5
1E0
330
1F
100
AcDbEntity
  8
taglio n°3
100
AcDbLine
 10
2984.539877642992
 20
-269.9973977268783
 30
-0.0000000000078798
 11
2999.339877642991
 21
-269.9973977268783
 31
-0.0000000000100607
  0
LINE
  5
1E1
330
1F
100
AcDbEntity
  8
taglio n°3
100
AcDbLine
 10
2999.339877642991
 20
-269.9973977268783
 30
-0.0000000000100607
 11
2999.339877642991
 21
-265.9973977268783
 31
-0.000000000010068
  0
LINE
  5
1E2
330
1F
100
AcDbEntity
  8
taglio n°3
100
AcDbLine
 10
2999.339877642991
 20
-265.9973977268783
 30
-0.000000000010068
 11
3014.999472361335
 21
-265.9973977268783
 31
-0.0000000000039897
  0
SPLINE
  5
1E3
330
1F
100
AcDbEntity
  8
incisione
100
AcDbSpline
210
0.0
220
0.0
230
1.0
 70
    24
 71
     2
 72
     6
 73
     3
 74
     0
 42
0.000000001
 43
0.0000000001
 40
18.0
 40
18.0
 40
18.0
 40
19.0
 40
19.0
 40
19.0
 10
2912.961029045851
 20
-460.8951469683925
 30
0.0
 10
2913.274271518076
 20
-460.8951469683925
 30
0.0
 10
2913.5875139903
 20
-460.8951469683925
 30
0.0
  0
SPLINE
  5
1E4
330
1F
100
AcDbEntity
  8
incisione
100
AcDbSpline
210
0.0
220
0.0
230
1.0
 70
    24
 71
     2
 72
     6
 73
     3
 74
     0
 42
0.000000001
 43
0.0000000001
 40
19.0
 40
19.0
 40
19.0
 40
20.0
 40
20.0
 40
20.0
 10
2913.5875139903
 20
-460.8951469683925
 30
0.0
 10
2913.5875139903
 20
-461.2705245724653
 30
0.0
 10
2913.5875139903
 20
-461.6459021765381
 30
0.0
  0
LINE
  5
1E5
330
1F
100
AcDbEntity
  8
incisione
100
AcDbLine
 10
2913.5875139903
 20
-461.6459021765381
 30
0.0
 11
2912.961029045851
 21
-461.6459021765381
 31
0.0
  0
SPLINE
  5
1E6
330
1F
100
AcDbEntity
  8
incisione
100
AcDbSpline
210
0.0
220
0.0
230
1.0
 70
     8
 71
     2
 72
     8
 73
     5
 74
     0
 42
0.000000001
 43
0.0000000001
 40
21.0
 40
21.0
 40
21.0
 40
22.0
 40
22.0
 40
23.0
 40
23.0
 40
23.0
 10
2912.961029045851
 20
-461.6459021765381
 30
0.0
 10
2912.804499635057
 20
-461.6459021765381
 30
0.0
 10
2912.694892245775
 20
-461.7555093868232
 30
0.0
 10
2912.585284856493
 20
-461.8651165971083
 30
0.0
 10
2912.585284856493
 20
-462.0216460079025
 30
0.0
  0
SPLINE
  5
1E7
330
1F
100
AcDbEntity
  8
incisione
100
AcDbSpline
210
0.0
220
0.0
230
1.0
 70
    24
 71
     2
 72
     6
 73
     3
 74
     0
 42
0.000000001
 43
0.0000000001
 40
23.0
 40
23.0
 40
23.0
 40
24.0
 40
24.0
 40
24.0
 10
2912.585284856493
 20
-462.0216460079025
 30
0.0
 10
2912.585284856493
 20
-462.3348884801271
 30
0.0
 10
2912.585284856493
 20
-462.6481309523515
 30
0.0
  0
SPLINE
  5
1E8
330
1F
100
AcDbEntity
  8
incisione
100
AcDbSpline
210
0.0
220
0.0
230
1.0
 70
    24
 71
     2
 72
     6
 73
     3
 74
     0
 42
0.000000001
 43
0.0000000001
 40
24.0
 40
24.0
 40
24.0
 40
25.0
 40
25.0
 40
25.0
 10
2912.585284856493
 20
-462.6481309523515
 30
0.0
 10
2912.20990725242
 20
-462.6481309523515
 30
0.0
 10
2911.834529648348
 20
-462.6481309523515
 30
0.0
  0
LINE
  5
1E9
330
1F
100
AcDbEntity
  8
incisione
100
AcDbLine
 10
2911.834529648348
 20
-462.6481309523515
 30
0.0
 11
2911.834529648348
 21
-462.0216460079025
 31
0.0
  0
SPLINE
  5
1EA
330
1F
100
AcDbEntity
  8
incisione
100
AcDbSpline
210
0.0
220
0.0
230
1.0
 70
     8
 71
     2
 72
    12
 73
     9
 74
     0
 42
0.000000001
 43
0.0000000001
 40
26.0
 40
26.0
 40
26.0
 40
27.0
 40
27.0
 40
28.0
 40
28.0
 40
29.0
 40
29.0
 40
30.0
 40
30.0
 40
30.0
 10
2911.834529648348
 20
-462.0216460079025
 30
0.0
 10
2911.834529648348
 20
-461.7899676876381
 30
0.0
 10
2911.922142278515
 20
-461.5834001014111
 30
0.0
 10
2912.009754908684
 20
-461.3768325151843
 30
0.0
 10
2912.162985230908
 20
-461.2236021929594
 30
0.0
 10
2912.316215553133
 20
-461.0703718707346
 30
0.0
 10
2912.52278313936
 20
-460.9827594195635
 30
0.0
 10
2912.729350725587
 20
-460.8951469683925
 30
0.0
 10
2912.961029045851
 20
-460.8951469683925
 30
0.0
  0
SPLINE
  5
1EB
330
1F
100
AcDbEntity
  8
incisione
100
AcDbSpline
210
0.0
220
0.0
230
1.0
 70
    24
 71
     2
 72
     6
 73
     3
 74
     0
 42
0.000000001
 43
0.0000000001
 40
6.0
 40
6.0
 40
6.0
 40
7.0
 40
7.0
 40
7.0
 10
2915.588305689076
 20
-462.0216460079025
 30
0.0
 10
2915.588305689076
 20
-462.3348884801271
 30
0.0
 10
2915.588305689076
 20
-462.6481309523515
 30
0.0
  0
SPLINE
  5
1EC
330
1F
100
AcDbEntity
  8
incisione
100
AcDbSpline
210
0.0
220
0.0
230
1.0
 70
    24
 71
     2
 72
     6
 73
     3
 74
     0
 42
0.000000001
 43
0.0000000001
 40
7.0
 40
7.0
 40
7.0
 40
8.0
 40
8.0
 40
8.0
 10
2915.588305689076
 20
-462.6481309523515
 30
0.0
 10
2915.212928085003
 20
-462.6481309523515
 30
0.0
 10
2914.83755048093
 20
-462.6481309523515
 30
0.0
  0
LINE
  5
1ED
330
1F
100
AcDbEntity
  8
incisione
100
AcDbLine
 10
2914.83755048093
 20
-462.6481309523515
 30
0.0
 11
2914.83755048093
 21
-462.0216460079025
 31
0.0
  0
SPLINE
  5
1EE
330
1F
100
AcDbEntity
  8
incisione
100
AcDbSpline
210
0.0
220
0.0
230
1.0
 70
     8
 71
     2
 72
     8
 73
     5
 74
     0
 42
0.000000001
 43
0.0000000001
 40
9.0
 40
9.0
 40
9.0
 40
10.0
 40
10.0
 40
11.0
 40
11.0
 40
11.0
 10
2914.83755048093
 20
-462.0216460079025
 30
0.0
 10
2914.83755048093
 20
-461.8651165971083
 30
0.0
 10
2914.731059245568
 20
-461.7555093868232
 30
0.0
 10
2914.624568010207
 20
-461.6459021765381
 30
0.0
 10
2914.46144006428
 20
-461.6459021765381
 30
0.0
  0
SPLINE
  5
1EF
330
1F
100
AcDbEntity
  8
incisione
100
AcDbSpline
210
0.0
220
0.0
230
1.0
 70
    24
 71
     2
 72
     6
 73
     3
 74
     0
 42
0.000000001
 43
0.0000000001
 40
11.0
 40
11.0
 40
11.0
 40
12.0
 40
12.0
 40
12.0
 10
2914.46144006428
 20
-461.6459021765381
 30
0.0
 10
2914.148197592056
 20
-461.6459021765381
 30
0.0
 10
2913.834955119832
 20
-461.6459021765381
 30
0.0
  0
SPLINE
  5
1F0
330
1F
100
AcDbEntity
  8
incisione
100
AcDbSpline
210
0.0
220
0.0
230
1.0
 70
    24
 71
     2
 72
     6
 73
     3
 74
     0
 42
0.000000001
 43
0.0000000001
 40
12.0
 40
12.0
 40
12.0
 40
13.0
 40
13.0
 40
13.0
 10
2913.834955119832
 20
-461.6459021765381
 30
0.0
 10
2913.834955119832
 20
-461.2705245724653
 30
0.0
 10
2913.834955119832
 20
-460.8951469683925
 30
0.0
  0
LINE
  5
1F1
330
1F
100
AcDbEntity
  8
incisione
100
AcDbLine
 10
2913.834955119832
 20
-460.8951469683925
 30
0.0
 11
2914.46144006428
 21
-460.8951469683925
 31
0.0
  0
SPLINE
  5
1F2
330
1F
100
AcDbEntity
  8
incisione
100
AcDbSpline
210
0.0
220
0.0
230
1.0
 70
     8
 71
     2
 72
    12
 73
     9
 74
     0
 42
0.000000001
 43
0.0000000001
 40
14.0
 40
14.0
 40
14.0
 40
15.0
 40
15.0
 40
16.0
 40
16.0
 40
17.0
 40
17.0
 40
18.0
 40
18.0
 40
18.0
 10
2914.46144006428
 20
-460.8951469683925
 30
0.0
 10
2914.693118384545
 20
-460.8951469683925
 30
0.0
 10
2914.899869263415
 20
-460.9827594195635
 30
0.0
 10
2915.106620142284
 20
-461.0703718707346
 30
0.0
 10
2915.259850464509
 20
-461.2236021929594
 30
0.0
 10
2915.413080786734
 20
-461.3768325151843
 30
0.0
 10
2915.500693237905
 20
-461.5834001014111
 30
0.0
 10
2915.588305689076
 20
-461.7899676876381
 30
0.0
 10
2915.588305689076
 20
-462.0216460079025
 30
0.0
  0
CIRCLE
  5
1F3
330
1F
100
AcDbEntity
  8
taglio n°1
100
AcDbCircle
 10
3047.558761373334
 20
-232.2421016807361
 30
0.0
 40
4.0
  0
CIRCLE
  5
1F5
330
1F
100
AcDbEntity
  8
taglio n°2
100
AcDbCircle
 10
3047.558761373334
 20
-232.2421016807361
 30
0.0
 40
16.5
  0
CIRCLE
  5
1F6
330
1F
100
AcDbEntity
  8
taglio n°3
100
AcDbCircle
 10
2970.830679716993
 20
-229.9339955232696
 30
0.0
 40
26.35
  0
CIRCLE
  5
1F7
330
1F
100
AcDbEntity
  8
taglio n°1
100
AcDbCircle
 10
2970.830679716993
 20
-229.9339955232696
 30
0.0
 40
3.0
  0
SPLINE
  5
1F8
330
1F
100
AcDbEntity
  8
taglio n°1
100
AcDbSpline
210
0.0
220
0.0
230
1.0
 70
    15
 71
     2
 72
    12
 73
     9
 74
     0
 42
0.000000001
 43
0.0000000001
 40
-15.70796326794897
 40
-15.70796326794897
 40
-15.70796326794897
 40
-11.78097245096172
 40
-11.78097245096172
 40
-7.853981633974483
 40
-7.853981633974483
 40
-3.926990816987241
 40
-3.926990816987241
 40
0.0
 40
0.0
 40
0.0
 10
3084.14504186917
 20
-439.3032088763728
 30
0.0
 41
1.0
 10
3084.145041869171
 20
-441.8032088763728
 30
0.0
 41
0.7071067811865476
 10
3086.645041869171
 20
-441.8032088763728
 30
0.0
 41
1.0
 10
3089.14504186917
 20
-441.8032088763728
 30
0.0
 41
0.7071067811865476
 10
3089.145041869171
 20
-439.3032088763728
 30
0.0
 41
1.0
 10
3089.14504186917
 20
-436.8032088763728
 30
0.0
 41
0.7071067811865476
 10
3086.645041869171
 20
-436.8032088763728
 30
0.0
 41
1.0
 10
3084.145041869171
 20
-436.8032088763728
 30
0.0
 41
0.7071067811865476
 10
3084.14504186917
 20
-439.3032088763728
 30
0.0
 41
1.0
  0
SPLINE
  5
1F9
330
1F
100
AcDbEntity
  8
taglio n°1
100
AcDbSpline
210
0.0
220
0.0
230
1.0
 70
    15
 71
     2
 72
    12
 73
     9
 74
     0
 42
0.000000001
 43
0.0000000001
 40
-15.70796326794897
 40
-15.70796326794897
 40
-15.70796326794897
 40
-11.78097245096172
 40
-11.78097245096172
 40
-7.853981633974483
 40
-7.853981633974483
 40
-3.926990816987241
 40
-3.926990816987241
 40
0.0
 40
0.0
 40
0.0
 10
2987.895041868515
 20
-439.3032088763728
 30
0.0
 41
1.0
 10
2987.895041868515
 20
-441.8032088763728
 30
0.0
 41
0.7071067811865476
 10
2985.395041868515
 20
-441.8032088763728
 30
0.0
 41
1.0
 10
2982.895041868515
 20
-441.8032088763728
 30
0.0
 41
0.7071067811865476
 10
2982.895041868515
 20
-439.3032088763728
 30
0.0
 41
1.0
 10
2982.895041868515
 20
-436.8032088763728
 30
0.0
 41
0.7071067811865476
 10
2985.395041868515
 20
-436.8032088763728
 30
0.0
 41
1.0
 10
2987.895041868515
 20
-436.8032088763728
 30
0.0
 41
0.7071067811865476
 10
2987.895041868515
 20
-439.3032088763728
 30
0.0
 41
1.0
  0
SPLINE
  5
1FA
330
1F
100
AcDbEntity
  8
taglio n°1
100
AcDbSpline
210
0.0
220
0.0
230
1.0
 70
    15
 71
     2
 72
    12
 73
     9
 74
     0
 42
0.000000001
 43
0.0000000001
 40
0.0
 40
0.0
 40
0.0
 40
3.534291103307881
 40
3.534291103307881
 40
7.068583049256625
 40
7.068583049256625
 40
10.60287499520537
 40
10.60287499520537
 40
14.13716694115411
 40
14.13716694115411
 40
14.13716694115411
 10
3071.77004186857
 20
-401.3032088761749
 30
0.0
 41
1.0
 10
3069.520041868571
 20
-401.3032096348816
 30
0.0
 41
0.7071069003958353
 10
3069.520041868634
 20
-403.5532088762385
 30
0.0
 41
1.0
 10
3069.520041868697
 20
-405.8032088762386
 30
0.0
 41
0.7071067811865476
 10
3071.770041868697
 20
-405.8032088761749
 30
0.0
 41
1.0
 10
3074.020041868697
 20
-405.8032088761114
 30
0.0
 41
0.7071067811865476
 10
3074.020041868634
 20
-403.5532088761113
 30
0.0
 41
1.0
 10
3074.02004186857
 20
-401.3032088761115
 30
0.0
 41
0.7071067811865476
 10
3071.77004186857
 20
-401.3032088761749
 30
0.0
 41
1.0
  0
SPLINE
  5
1FB
330
1F
100
AcDbEntity
  8
taglio n°1
100
AcDbSpline
210
0.0
220
0.0
230
1.0
 70
    15
 71
     2
 72
    12
 73
     9
 74
     0
 42
0.000000001
 43
0.0000000001
 40
0.0
 40
0.0
 40
0.0
 40
3.534291945948744
 40
3.534291945948744
 40
7.068583891897489
 40
7.068583891897489
 40
10.60287583784623
 40
10.60287583784623
 40
14.13716694115411
 40
14.13716694115411
 40
14.13716694115411
 10
3000.27004186857
 20
-472.8032088761749
 30
0.0
 41
1.0
 10
2998.02004186857
 20
-472.8032088762386
 30
0.0
 41
0.7071067811865476
 10
2998.020041868634
 20
-475.0532088762385
 30
0.0
 41
1.0
 10
2998.020041868697
 20
-477.3032088762386
 30
0.0
 41
0.7071067811865476
 10
3000.270041868697
 20
-477.3032088761749
 30
0.0
 41
1.0
 10
3002.520041868697
 20
-477.3032088761114
 30
0.0
 41
0.7071067811865476
 10
3002.520041868634
 20
-475.0532088761114
 30
0.0
 41
1.0
 10
3002.520041868571
 20
-472.8032096347546
 30
0.0
 41
0.7071069003958355
 10
3000.27004186857
 20
-472.8032088761749
 30
0.0
 41
1.0
  0
SPLINE
  5
1FC
330
1F
100
AcDbEntity
  8
taglio n°1
100
AcDbSpline
210
0.0
220
0.0
230
1.0
 70
    15
 71
     2
 72
    12
 73
     9
 74
     0
 42
0.000000001
 43
0.0000000001
 40
0.0
 40
0.0
 40
0.0
 40
3.534291945948744
 40
3.534291945948744
 40
7.068583891897489
 40
7.068583891897489
 40
10.60287583784623
 40
10.60287583784623
 40
14.13716694115411
 40
14.13716694115411
 40
14.13716694115411
 10
3000.27004186857
 20
-401.3032088765929
 30
0.0
 41
1.0
 10
2998.02004186857
 20
-401.3032088766566
 30
0.0
 41
0.7071067811865476
 10
2998.020041868634
 20
-403.5532088766565
 30
0.0
 41
1.0
 10
2998.020041868697
 20
-405.8032088766566
 30
0.0
 41
0.7071067811865476
 10
3000.270041868697
 20
-405.8032088765929
 30
0.0
 41
1.0
 10
3002.520041868697
 20
-405.8032088765294
 30
0.0
 41
0.7071067811865476
 10
3002.520041868634
 20
-403.5532088765293
 30
0.0
 41
1.0
 10
3002.520041868571
 20
-401.3032096351725
 30
0.0
 41
0.7071069003958355
 10
3000.27004186857
 20
-401.3032088765929
 30
0.0
 41
1.0
  0
SPLINE
  5
1FD
330
1F
100
AcDbEntity
  8
taglio n°1
100
AcDbSpline
210
0.0
220
0.0
230
1.0
 70
    15
 71
     2
 72
    12
 73
     9
 74
     0
 42
0.000000001
 43
0.0000000001
 40
0.0
 40
0.0
 40
0.0
 40
3.534290471327308
 40
3.534290471327308
 40
7.068582627936243
 40
7.068582627936243
 40
10.60287478454518
 40
10.60287478454518
 40
14.13716694115411
 40
14.13716694115411
 40
14.13716694115411
 10
3071.77004186857
 20
-472.8032088761749
 30
0.0
 41
1.0
 10
3069.52004186857
 20
-472.8032103935245
 30
0.0
 41
0.7071070196050914
 10
3069.520041868634
 20
-475.0532088762385
 30
0.0
 41
1.0
 10
3069.520041868697
 20
-477.3032088762386
 30
0.0
 41
0.7071067811865476
 10
3071.770041868697
 20
-477.3032088761749
 30
0.0
 41
1.0
 10
3074.020041868697
 20
-477.3032088761114
 30
0.0
 41
0.7071067811865476
 10
3074.020041868634
 20
-475.0532088761114
 30
0.0
 41
1.0
 10
3074.02004186857
 20
-472.8032088761115
 30
0.0
 41
0.7071067811865476
 10
3071.77004186857
 20
-472.8032088761749
 30
0.0
 41
1.0
  0
SPLINE
  5
1FE
330
1F
100
AcDbEntity
  8
taglio n°2
370
    35
100
AcDbSpline
210
0.0
220
0.0
230
1.0
 70
    11
 71
     3
 72
    17
 73
    13
 74
     0
 42
0.000000001
 43
0.0000000001
 40
0.0
 40
0.0
 40
0.0
 40
0.0
 40
1.0
 40
1.0
 40
1.0
 40
2.0
 40
2.0
 40
2.0
 40
3.0
 40
3.0
 40
3.0
 40
4.0
 40
4.0
 40
4.0
 40
4.0
 10
2963.512026833443
 20
-462.6271687236017
 30
0.0
 10
2963.512026833443
 20
-465.3887572645781
 30
0.0
 10
2961.273403787128
 20
-467.6273803108934
 30
0.0
 10
2958.511815246151
 20
-467.6273803108934
 30
0.0
 10
2955.750226705175
 20
-467.6273803108934
 30
0.0
 10
2953.51160365886
 20
-465.3887572645781
 30
0.0
 10
2953.51160365886
 20
-462.6271687236017
 30
0.0
 10
2953.51160365886
 20
-459.8659246921741
 30
0.0
 10
2955.750226705175
 20
-457.6273016458586
 30
0.0
 10
2958.511815246151
 20
-457.6273016458586
 30
0.0
 10
2961.273403787128
 20
-457.6273016458586
 30
0.0
 10
2963.512026833443
 20
-459.8659246921741
 30
0.0
 10
2963.512026833443
 20
-462.6271687236017
 30
0.0
  0
SPLINE
  5
1FF
330
1F
100
AcDbEntity
  8
incisione
370
    35
100
AcDbSpline
210
0.0
220
0.0
230
1.0
 70
    11
 71
     3
 72
    17
 73
    13
 74
     0
 42
0.000000001
 43
0.0000000001
 40
0.0
 40
0.0
 40
0.0
 40
0.0
 40
1.0
 40
1.0
 40
1.0
 40
2.0
 40
2.0
 40
2.0
 40
3.0
 40
3.0
 40
3.0
 40
4.0
 40
4.0
 40
4.0
 40
4.0
 10
2960.664310905336
 20
-444.987246310477
 30
0.0
 10
2960.664310905336
 20
-446.0007934022375
 30
0.0
 10
2959.842655632103
 20
-446.8224486754696
 30
0.0
 10
2958.829108540343
 20
-446.8224486754696
 30
0.0
 10
2957.815561448583
 20
-446.8224486754696
 30
0.0
 10
2956.994422939673
 20
-446.0007934022375
 30
0.0
 10
2956.994422939673
 20
-444.987246310477
 30
0.0
 10
2956.994422939673
 20
-443.9740437282649
 30
0.0
 10
2957.815561448583
 20
-443.1522162002587
 30
0.0
 10
2958.829108540343
 20
-443.1522162002587
 30
0.0
 10
2959.842655632103
 20
-443.1522162002587
 30
0.0
 10
2960.664310905336
 20
-443.9740437282649
 30
0.0
 10
2960.664310905336
 20
-444.987246310477
 30
0.0
  0
SPLINE
  5
200
330
1F
100
AcDbEntity
  8
incisione
370
    35
100
AcDbSpline
210
0.0
220
0.0
230
1.0
 70
     8
 71
     3
 72
    11
 73
     7
 74
     0
 42
0.000000001
 43
0.0000000001
 40
0.0
 40
0.0
 40
0.0
 40
0.0
 40
1.0
 40
1.0
 40
1.0
 40
2.0
 40
2.0
 40
2.0
 40
2.0
 10
2951.238874167241
 20
-445.4087537430973
 30
0.0
 10
2951.225782804397
 20
-445.2268527014762
 30
0.0
 10
2951.219237122975
 20
-445.0432291121123
 30
0.0
 10
2951.219237122975
 20
-444.8580552297801
 30
0.0
 10
2951.219237122975
 20
-441.8370509987645
 30
0.0
 10
2952.979508661163
 20
-439.2270466591393
 30
0.0
 10
2955.530429613216
 20
-437.9978365900021
 30
0.0
  0
SPLINE
  5
201
330
1F
100
AcDbEntity
  8
incisione
370
    35
100
AcDbSpline
210
0.0
220
0.0
230
1.0
 70
     8
 71
     3
 72
    11
 73
     7
 74
     0
 42
0.000000001
 43
0.0000000001
 40
0.0
 40
0.0
 40
0.0
 40
0.0
 40
1.0
 40
1.0
 40
1.0
 40
2.0
 40
2.0
 40
2.0
 40
2.0
 10
2963.114118304897
 20
-451.149833114492
 30
0.0
 10
2961.893865484021
 20
-451.9821681837282
 30
0.0
 10
2960.418675597237
 20
-452.4689601757942
 30
0.0
 10
2958.830142068989
 20
-452.4689601757942
 30
0.0
 10
2957.319467698706
 20
-452.4689601757942
 30
0.0
 10
2955.911801683434
 20
-452.0290214823277
 30
0.0
 10
2954.728066874702
 20
-451.2700669469271
 30
0.0
  0
SPLINE
  5
202
330
1F
100
AcDbEntity
  8
incisione
370
    35
100
AcDbSpline
210
0.0
220
0.0
230
1.0
 70
     8
 71
     3
 72
    11
 73
     7
 74
     0
 42
0.000000001
 43
0.0000000001
 40
0.0
 40
0.0
 40
0.0
 40
0.0
 40
1.0
 40
1.0
 40
1.0
 40
2.0
 40
2.0
 40
2.0
 40
2.0
 10
2962.325535948323
 20
-438.0956773017832
 30
0.0
 10
2964.770175704657
 20
-439.3620944021611
 30
0.0
 10
2966.441047015003
 20
-441.9149101567312
 30
0.0
 10
2966.441047015003
 20
-444.8580552297801
 30
0.0
 10
2966.441047015003
 20
-445.0862928056779
 30
0.0
 10
2966.431056238096
 20
-445.312118814736
 30
0.0
 10
2966.411419193829
 20
-445.5353610021802
 30
0.0
  0
POLYLINE
  5
203
330
1F
100
AcDbEntity
  8
incisione
370
    35
100
AcDb2dPolyline
 66
     1
 10
0.0
 20
0.0
 30
0.0
  0
VERTEX
  5
204
330
203
100
AcDbEntity
  8
incisione
370
    35
100
AcDbVertex
100
AcDb2dVertex
 10
2901.506057457475
 20
-440.8226426331328
 30
0.0
  0
VERTEX
  5
205
330
203
100
AcDbEntity
  8
incisione
370
    35
100
AcDbVertex
100
AcDb2dVertex
 10
2901.506057457475
 20
-445.3277939991939
 30
0.0
  0
SEQEND
  5
206
330
203
100
AcDbEntity
  8
incisione
370
    35
  0
SPLINE
  5
207
330
1F
100
AcDbEntity
  8
incisione
370
    35
100
AcDbSpline
210
0.0
220
0.0
230
1.0
 70
     8
 71
     3
 72
    17
 73
    13
 74
     0
 42
0.000000001
 43
0.0000000001
 40
0.0
 40
0.0
 40
0.0
 40
0.0
 40
1.0
 40
1.0
 40
1.0
 40
2.0
 40
2.0
 40
2.0
 40
3.0
 40
3.0
 40
3.0
 40
4.0
 40
4.0
 40
4.0
 40
4.0
 10
2899.33495828267
 20
-441.5650607102042
 30
0.0
 10
2897.660641876839
 20
-442.373452365818
 30
0.0
 10
2896.506190379732
 20
-444.0870428601813
 30
0.0
 10
2896.506190379732
 20
-446.0702120762654
 30
0.0
 10
2896.506190379732
 20
-448.8312838529188
 30
0.0
 10
2898.744468916499
 20
-451.070423663557
 30
0.0
 10
2901.506057457475
 20
-451.070423663557
 30
0.0
 10
2904.267301488902
 20
-451.070423663557
 30
0.0
 10
2906.505924535218
 20
-448.8312838529188
 30
0.0
 10
2906.505924535218
 20
-446.0702120762654
 30
0.0
 10
2906.505924535218
 20
-444.0870428601813
 30
0.0
 10
2905.350439509465
 20
-442.373452365818
 30
0.0
 10
2903.67715663228
 20
-441.5650607102042
 30
0.0
  0
SPLINE
  5
208
330
1F
100
AcDbEntity
  8
taglio n°2
370
    35
100
AcDbSpline
210
0.0
220
0.0
230
1.0
 70
    11
 71
     3
 72
    17
 73
    13
 74
     0
 42
0.000000001
 43
0.0000000001
 40
0.0
 40
0.0
 40
0.0
 40
0.0
 40
1.0
 40
1.0
 40
1.0
 40
2.0
 40
2.0
 40
2.0
 40
3.0
 40
3.0
 40
3.0
 40
4.0
 40
4.0
 40
4.0
 40
4.0
 10
2906.506269044767
 20
-462.6721272196843
 30
0.0
 10
2906.506269044767
 20
-465.4337157606606
 30
0.0
 10
2904.267645998451
 20
-467.6723388069759
 30
0.0
 10
2901.506057457475
 20
-467.6723388069759
 30
0.0
 10
2898.744468916499
 20
-467.6723388069759
 30
0.0
 10
2896.505845870183
 20
-465.4337157606606
 30
0.0
 10
2896.505845870183
 20
-462.6721272196843
 30
0.0
 10
2896.505845870183
 20
-459.9108831882565
 30
0.0
 10
2898.744468916499
 20
-457.672260141941
 30
0.0
 10
2901.506057457475
 20
-457.672260141941
 30
0.0
 10
2904.267645998451
 20
-457.672260141941
 30
0.0
 10
2906.506269044767
 20
-459.9108831882565
 30
0.0
 10
2906.506269044767
 20
-462.6721272196843
 30
0.0
  0
SPLINE
  5
209
330
1F
100
AcDbEntity
  8
incisione
370
    35
100
AcDbSpline
210
0.0
220
0.0
230
1.0
 70
    11
 71
     3
 72
    17
 73
    13
 74
     0
 42
0.000000001
 43
0.0000000001
 40
0.0
 40
0.0
 40
0.0
 40
0.0
 40
1.0
 40
1.0
 40
1.0
 40
2.0
 40
2.0
 40
2.0
 40
3.0
 40
3.0
 40
3.0
 40
4.0
 40
4.0
 40
4.0
 40
4.0
 10
2910.691619069237
 20
-462.6721272196843
 30
0.0
 10
2910.691619069237
 20
-463.1320474669651
 30
0.0
 10
2910.318859737733
 20
-463.5048067984692
 30
0.0
 10
2909.858939490452
 20
-463.5048067984692
 30
0.0
 10
2909.39936375272
 20
-463.5048067984692
 30
0.0
 10
2909.026259911668
 20
-463.1320474669651
 30
0.0
 10
2909.026259911668
 20
-462.6721272196843
 30
0.0
 10
2909.026259911668
 20
-462.2122069724035
 30
0.0
 10
2909.39936375272
 20
-461.8397921504479
 30
0.0
 10
2909.858939490452
 20
-461.8397921504479
 30
0.0
 10
2910.318859737733
 20
-461.8397921504479
 30
0.0
 10
2910.691619069237
 20
-462.2122069724035
 30
0.0
 10
2910.691619069237
 20
-462.6721272196843
 30
0.0
  0
SPLINE
  5
20A
330
1F
100
AcDbEntity
  8
incisione
370
    35
100
AcDbSpline
210
0.0
220
0.0
230
1.0
 70
    11
 71
     3
 72
    17
 73
    13
 74
     0
 42
0.000000001
 43
0.0000000001
 40
0.0
 40
0.0
 40
0.0
 40
0.0
 40
1.0
 40
1.0
 40
1.0
 40
2.0
 40
2.0
 40
2.0
 40
3.0
 40
3.0
 40
3.0
 40
4.0
 40
4.0
 40
4.0
 40
4.0
 10
2910.691446662584
 20
-456.451827798687
 30
0.0
 10
2910.701092929943
 20
-456.9117480459679
 30
0.0
 10
2910.336601827603
 20
-457.2920865875394
 30
0.0
 10
2909.876681580322
 20
-457.3017328548981
 30
0.0
 10
2909.41710584259
 20
-457.3113791222568
 30
0.0
 10
2909.036078281922
 20
-456.9465435103689
 30
0.0
 10
2909.026432014563
 20
-456.4866232630879
 30
0.0
 10
2909.016785747204
 20
-456.0270475253558
 30
0.0
 10
2909.381965868641
 20
-455.6467089837842
 30
0.0
 10
2909.841541606373
 20
-455.6370627164254
 30
0.0
 10
2910.301117344105
 20
-455.6274164490667
 30
0.0
 10
2910.681800395225
 20
-455.9919075514063
 30
0.0
 10
2910.691446662584
 20
-456.451827798687
 30
0.0
  0
SPLINE
  5
20B
330
1F
100
AcDbEntity
  8
incisione
370
    35
100
AcDbSpline
210
0.0
220
0.0
230
1.0
 70
    11
 71
     3
 72
    17
 73
    13
 74
     0
 42
0.000000001
 43
0.0000000001
 40
0.0
 40
0.0
 40
0.0
 40
0.0
 40
1.0
 40
1.0
 40
1.0
 40
2.0
 40
2.0
 40
2.0
 40
3.0
 40
3.0
 40
3.0
 40
4.0
 40
4.0
 40
4.0
 40
4.0
 10
2910.691446966342
 20
-468.8752011632552
 30
0.0
 10
2910.691446966342
 20
-469.335121410536
 30
0.0
 10
2910.318687634838
 20
-469.7078807420401
 30
0.0
 10
2909.858767387557
 20
-469.7078807420401
 30
0.0
 10
2909.399191649824
 20
-469.7078807420401
 30
0.0
 10
2909.026087808772
 20
-469.335121410536
 30
0.0
 10
2909.026087808772
 20
-468.8752011632552
 30
0.0
 10
2909.026087808772
 20
-468.4152809159743
 30
0.0
 10
2909.399191649824
 20
-468.0428660940188
 30
0.0
 10
2909.858767387557
 20
-468.0428660940188
 30
0.0
 10
2910.318687634838
 20
-468.0428660940188
 30
0.0
 10
2910.691446966342
 20
-468.4152809159743
 30
0.0
 10
2910.691446966342
 20
-468.8752011632552
 30
0.0
  0
SPLINE
  5
20C
330
1F
100
AcDbEntity
  8
incisione
370
    35
100
AcDbSpline
210
0.0
220
0.0
230
1.0
 70
     8
 71
     3
 72
    11
 73
     7
 74
     0
 42
0.000000001
 43
0.0000000001
 40
0.0
 40
0.0
 40
0.0
 40
0.0
 40
1.0
 40
1.0
 40
1.0
 40
2.0
 40
2.0
 40
2.0
 40
2.0
 10
2935.933490120822
 20
-437.61060785746
 30
0.0
 10
2933.336404889267
 20
-436.8389064687642
 30
0.0
 10
2930.409279510224
 20
-437.4779716812779
 30
0.0
 10
2928.359103186952
 20
-439.5283202593243
 30
0.0
 10
2926.308754608905
 20
-441.5784965825965
 30
0.0
 10
2925.669517141617
 20
-444.5056219616391
 30
0.0
 10
2926.441563039862
 20
-447.1027071931946
 30
0.0
  0
SPLINE
  5
20D
330
1F
100
AcDbEntity
  8
incisione
370
    35
100
AcDbSpline
210
0.0
220
0.0
230
1.0
 70
     8
 71
     3
 72
    11
 73
     7
 74
     0
 42
0.000000001
 43
0.0000000001
 40
0.0
 40
0.0
 40
0.0
 40
0.0
 40
1.0
 40
1.0
 40
1.0
 40
2.0
 40
2.0
 40
2.0
 40
2.0
 10
2931.574066293787
 20
-452.2353827018941
 30
0.0
 10
2934.170979270568
 20
-453.0070840905901
 30
0.0
 10
2937.097760140062
 20
-452.3676743685277
 30
0.0
 10
2939.147936463335
 20
-450.3174980452555
 30
0.0
 10
2941.198285041381
 20
-448.2671494672091
 30
0.0
 10
2941.837350253895
 20
-445.3400240881666
 30
0.0
 10
2941.065648865199
 20
-442.7431111113852
 30
0.0
  0
SPLINE
  5
20E
330
1F
100
AcDbEntity
  8
incisione
370
    35
100
AcDbSpline
210
0.0
220
0.0
230
1.0
 70
    11
 71
     3
 72
    17
 73
    13
 74
     0
 42
0.000000001
 43
0.0000000001
 40
0.0
 40
0.0
 40
0.0
 40
0.0
 40
1.0
 40
1.0
 40
1.0
 40
2.0
 40
2.0
 40
2.0
 40
3.0
 40
3.0
 40
3.0
 40
4.0
 40
4.0
 40
4.0
 40
4.0
 10
2927.95085937195
 20
-444.2892699651654
 30
0.0
 10
2927.95085937195
 20
-444.5335272350696
 30
0.0
 10
2927.753110891097
 20
-444.7317924802457
 30
0.0
 10
2927.508509111644
 20
-444.7317924802457
 30
0.0
 10
2927.264251841739
 20
-444.7317924802457
 30
0.0
 10
2927.065814341789
 20
-444.5335272350696
 30
0.0
 10
2927.065814341789
 20
-444.2892699651654
 30
0.0
 10
2927.065814341789
 20
-444.0448404404869
 30
0.0
 10
2927.264251841739
 20
-443.8465751953107
 30
0.0
 10
2927.508509111644
 20
-443.8465751953107
 30
0.0
 10
2927.753110891097
 20
-443.8465751953107
 30
0.0
 10
2927.95085937195
 20
-444.0448404404869
 30
0.0
 10
2927.95085937195
 20
-444.2892699651654
 30
0.0
  0
SPLINE
  5
20F
330
1F
100
AcDbEntity
  8
incisione
370
    35
100
AcDbSpline
210
0.0
220
0.0
230
1.0
 70
    11
 71
     3
 72
    17
 73
    13
 74
     0
 42
0.000000001
 43
0.0000000001
 40
0.0
 40
0.0
 40
0.0
 40
0.0
 40
1.0
 40
1.0
 40
1.0
 40
2.0
 40
2.0
 40
2.0
 40
3.0
 40
3.0
 40
3.0
 40
4.0
 40
4.0
 40
4.0
 40
4.0
 10
2940.272071120171
 20
-445.5829033198767
 30
0.0
 10
2940.272071120171
 20
-445.8273328445551
 30
0.0
 10
2940.073978129769
 20
-446.025425834957
 30
0.0
 10
2939.829720859866
 20
-446.025425834957
 30
0.0
 10
2939.585119080413
 20
-446.025425834957
 30
0.0
 10
2939.387026090011
 20
-445.8273328445551
 30
0.0
 10
2939.387026090011
 20
-445.5829033198767
 30
0.0
 10
2939.387026090011
 20
-445.3384737951982
 30
0.0
 10
2939.585119080413
 20
-445.1403808047963
 30
0.0
 10
2939.829720859866
 20
-445.1403808047963
 30
0.0
 10
2940.073978129769
 20
-445.1403808047963
 30
0.0
 10
2940.272071120171
 20
-445.3384737951982
 30
0.0
 10
2940.272071120171
 20
-445.5829033198767
 30
0.0
  0
SPLINE
  5
210
330
1F
100
AcDbEntity
  8
taglio n°2
370
    35
100
AcDbSpline
210
0.0
220
0.0
230
1.0
 70
    11
 71
     3
 72
    17
 73
    13
 74
     0
 42
0.000000001
 43
0.0000000001
 40
0.0
 40
0.0
 40
0.0
 40
0.0
 40
1.0
 40
1.0
 40
1.0
 40
2.0
 40
2.0
 40
2.0
 40
3.0
 40
3.0
 40
3.0
 40
4.0
 40
4.0
 40
4.0
 40
4.0
 10
2938.483722053778
 20
-462.6275132331502
 30
0.0
 10
2938.483722053778
 20
-465.3887572645781
 30
0.0
 10
2936.245099007463
 20
-467.6273803108934
 30
0.0
 10
2933.483510466487
 20
-467.6273803108934
 30
0.0
 10
2930.722266435059
 20
-467.6273803108934
 30
0.0
 10
2928.483643388744
 20
-465.3887572645781
 30
0.0
 10
2928.483643388744
 20
-462.6275132331502
 30
0.0
 10
2928.483643388744
 20
-459.8662692017226
 30
0.0
 10
2930.722266435059
 20
-457.6276461554073
 30
0.0
 10
2933.483510466487
 20
-457.6276461554073
 30
0.0
 10
2936.245099007463
 20
-457.6276461554073
 30
0.0
 10
2938.483722053778
 20
-459.8662692017226
 30
0.0
 10
2938.483722053778
 20
-462.6275132331502
 30
0.0
  0
SPLINE
  5
211
330
1F
100
AcDbEntity
  8
taglio n°1
100
AcDbSpline
210
0.0
220
0.0
230
1.0
 70
    15
 71
     2
 72
    12
 73
     9
 74
     0
 42
0.000000001
 43
0.0000000001
 40
-15.70796326794897
 40
-15.70796326794897
 40
-15.70796326794897
 40
-11.78097245096172
 40
-11.78097245096172
 40
-7.853981633974483
 40
-7.853981633974483
 40
-3.926990816987241
 40
-3.926990816987241
 40
0.0
 40
0.0
 40
0.0
 10
2929.770041868513
 20
-391.1782088763692
 30
0.0000000000000013
 41
1.0
 10
2927.270041868512
 20
-391.1782088763693
 30
0.0000000000000013
 41
0.7071067811865476
 10
2927.270041868513
 20
-388.6782088763692
 30
0.0000000000000013
 41
1.0
 10
2927.270041868512
 20
-386.1782088763691
 30
0.0000000000000013
 41
0.7071067811865476
 10
2929.770041868513
 20
-386.1782088763692
 30
0.0000000000000013
 41
1.0
 10
2932.270041868512
 20
-386.1782088763691
 30
0.0000000000000013
 41
0.7071067811865476
 10
2932.270041868513
 20
-388.6782088763692
 30
0.0000000000000013
 41
1.0
 10
2932.270041868512
 20
-391.1782088763693
 30
0.0000000000000013
 41
0.7071067811865476
 10
2929.770041868513
 20
-391.1782088763692
 30
0.0000000000000013
 41
1.0
  0
SPLINE
  5
212
330
1F
100
AcDbEntity
  8
taglio n°1
100
AcDbSpline
210
0.0
220
0.0
230
1.0
 70
    15
 71
     2
 72
    12
 73
     9
 74
     0
 42
0.000000001
 43
0.0000000001
 40
-15.70796326794897
 40
-15.70796326794897
 40
-15.70796326794897
 40
-11.78097245096172
 40
-11.78097245096172
 40
-7.853981633974483
 40
-7.853981633974483
 40
-3.926990816987241
 40
-3.926990816987241
 40
0.0
 40
0.0
 40
0.0
 10
2929.770041868513
 20
-487.4282088763694
 30
0.0000000000000013
 41
1.0
 10
2927.270041868512
 20
-487.4282088763692
 30
0.0000000000000013
 41
0.7071067811865476
 10
2927.270041868513
 20
-489.9282088763694
 30
0.0000000000000013
 41
1.0
 10
2927.270041868512
 20
-492.4282088763695
 30
0.0000000000000013
 41
0.7071067811865476
 10
2929.770041868513
 20
-492.4282088763694
 30
0.0000000000000013
 41
1.0
 10
2932.270041868512
 20
-492.4282088763695
 30
0.0000000000000013
 41
0.7071067811865476
 10
2932.270041868513
 20
-489.9282088763694
 30
0.0000000000000013
 41
1.0
 10
2932.270041868512
 20
-487.4282088763692
 30
0.0000000000000013
 41
0.7071067811865476
 10
2929.770041868513
 20
-487.4282088763694
 30
0.0000000000000013
 41
1.0
  0
SPLINE
  5
213
330
1F
100
AcDbEntity
  8
taglio n°1
100
AcDbSpline
210
0.0
220
0.0
230
1.0
 70
    15
 71
     2
 72
    12
 73
     9
 74
     0
 42
0.000000001
 43
0.0000000001
 40
-14.13716497499209
 40
-14.13716497499209
 40
-14.13716497499209
 40
-9.424777399008804
 40
-9.424777399008804
 40
-4.712387575982977
 40
-4.712387575982977
 40
0.0000011235210842
 40
0.0000011235210842
 40
4.712390946546671
 40
4.712390946546671
 40
4.712390946546671
 10
3089.9790629999
 20
-280.9973977268776
 30
-0.0000000000037817
 41
1.0
 10
3089.9790629999
 20
-277.9973997499256
 30
-0.0000000000037792
 41
0.7071070196050963
 10
3086.9790629999
 20
-277.9973977268776
 30
-0.0000000000037817
 41
1.0
 10
3083.979062999901
 20
-277.9973977268779
 30
-0.0000000000037824
 41
0.707106781186522
 10
3083.9790629999
 20
-280.9973977268776
 30
-0.0000000000037817
 41
1.0
 10
3083.979062999901
 20
-283.9973967153534
 30
-0.0000000000037415
 41
0.7071069003958607
 10
3086.9790629999
 20
-283.9973977268776
 30
-0.0000000000037817
 41
1.0
 10
3089.9790629999
 20
-283.9973977268776
 30
-0.000000000003761
 41
0.7071067811865527
 10
3089.9790629999
 20
-280.9973977268776
 30
-0.0000000000037817
 41
1.0
  0
SPLINE
  5
214
330
1F
100
AcDbEntity
  8
taglio n°1
100
AcDbSpline
210
0.0
220
0.0
230
1.0
 70
    15
 71
     2
 72
    12
 73
     9
 74
     0
 42
0.000000001
 43
0.0000000001
 40
-23.56194490192346
 40
-23.56194490192346
 40
-23.56194490192346
 40
-18.84955592153876
 40
-18.84955592153876
 40
-14.13716694115431
 40
-14.13716694115431
 40
-9.42477796076946
 40
-9.42477796076946
 40
-4.712388980384704
 40
-4.712388980384704
 40
-4.712388980384704
 10
3089.9790629999
 20
-350.9973977268778
 30
-0.0000000000037817
 41
1.0
 10
3089.9790629999
 20
-347.9973977268778
 30
-0.0000000000038067
 41
0.7071067811865459
 10
3086.9790629999
 20
-347.9973977268774
 30
-0.0000000000037817
 41
1.0
 10
3083.979062999901
 20
-347.9973977268779
 30
-0.0000000000038042
 41
0.7071067811865729
 10
3083.9790629999
 20
-350.9973977268776
 30
-0.0000000000037817
 41
1.0
 10
3083.9790629999
 20
-353.9973977268779
 30
-0.0000000000038375
 41
0.7071067811865306
 10
3086.9790629999
 20
-353.9973977268778
 30
-0.0000000000037817
 41
1.0
 10
3089.9790629999
 20
-353.9973977268777
 30
-0.0000000000038149
 41
0.7071067811865405
 10
3089.9790629999
 20
-350.9973977268778
 30
-0.0000000000037817
 41
1.0
  0
SPLINE
  5
215
330
1F
100
AcDbEntity
  8
taglio n°1
100
AcDbSpline
210
0.0
220
0.0
230
1.0
 70
    15
 71
     2
 72
    12
 73
     9
 74
     0
 42
0.000000001
 43
0.0000000001
 40
-4.712388137743588
 40
-4.712388137743588
 40
-4.712388137743588
 40
0.0
 40
0.0
 40
4.71238926126474
 40
4.71238926126474
 40
9.424778522529955
 40
9.424778522529955
 40
14.13716778379517
 40
14.13716778379517
 40
14.13716778379517
 10
3114.9790629999
 20
-350.9973977268776
 30
-0.0000000000037817
 41
1.0
 10
3114.9790629999
 20
-347.9973987384023
 30
-0.0000000000037847
 41
0.7071069003958603
 10
3111.9790629999
 20
-347.9973977268774
 30
-0.0000000000037817
 41
1.0
 10
3108.9790629999
 20
-347.9973977268778
 30
-0.0000000000037627
 41
0.7071067811865727
 10
3108.9790629999
 20
-350.9973977268776
 30
-0.0000000000037817
 41
1.0
 10
3108.9790629999
 20
-353.9973977268776
 30
-0.0000000000037489
 41
0.7071067811865224
 10
3111.9790629999
 20
-353.9973977268778
 30
-0.0000000000037533
 41
1.0
 10
3114.979062999901
 20
-353.9973977268774
 30
-0.0000000000037483
 41
0.7071067811865223
 10
3114.9790629999
 20
-350.9973977268776
 30
-0.0000000000037817
 41
1.0
  0
SPLINE
  5
216
330
1F
100
AcDbEntity
  8
taglio n°1
100
AcDbSpline
210
0.0
220
0.0
230
1.0
 70
    15
 71
     2
 72
    12
 73
     9
 74
     0
 42
0.000000001
 43
0.0000000001
 40
-32.98672089653081
 40
-32.98672089653081
 40
-32.98672089653081
 40
-28.27433332054749
 40
-28.27433332054749
 40
-23.56194293576146
 40
-23.56194293576146
 40
-18.84955479801791
 40
-18.84955479801791
 40
-14.13716497499205
 40
-14.13716497499205
 40
-14.13716497499205
 10
3114.9790629999
 20
-280.9973977268776
 30
-0.0000000000037817
 41
1.0
 10
3114.9790629999
 20
-277.9973997499255
 30
-0.0000000000037982
 41
0.7071070196050946
 10
3111.9790629999
 20
-277.9973977268776
 30
-0.0000000000037817
 41
1.0
 10
3108.9790629999
 20
-277.9973977268776
 30
-0.0000000000038045
 41
0.7071067811865689
 10
3108.9790629999
 20
-280.9973977268774
 30
-0.0000000000037817
 41
1.0
 10
3108.979064011423
 20
-283.9973957038301
 30
-0.0000000000038026
 41
0.7071071881923923
 10
3111.9790629999
 20
-283.9973977268777
 30
-0.0000000000037897
 41
1.000000139662242
 10
3114.9790629999
 20
-283.9973977268778
 30
-0.0000000000038133
 41
0.7071068305645833
 10
3114.9790629999
 20
-280.9973977268776
 30
-0.0000000000037817
 41
1.0
  0
SPLINE
  5
217
330
1F
100
AcDbEntity
  8
taglio n°1
100
AcDbSpline
210
0.0
220
0.0
230
1.0
 70
    15
 71
     2
 72
    12
 73
     9
 74
     0
 42
0.000000001
 43
0.0000000001
 40
-32.98672089653081
 40
-32.98672089653081
 40
-32.98672089653081
 40
-28.27433332054749
 40
-28.27433332054749
 40
-23.56194293576146
 40
-23.56194293576146
 40
-18.84955479801791
 40
-18.84955479801791
 40
-14.13716497499205
 40
-14.13716497499205
 40
-14.13716497499205
 10
2915.01988172277
 20
-280.9973977268771
 30
0.0
 41
1.0
 10
2915.01988172277
 20
-277.997399749925
 30
-0.0000000000000165
 41
0.7071070196050946
 10
2918.01988172277
 20
-277.9973977268771
 30
0.0
 41
1.0
 10
2921.01988172277
 20
-277.9973977268771
 30
-0.0000000000000228
 41
0.7071067811865689
 10
2921.01988172277
 20
-280.9973977268769
 30
0.0
 41
1.0
 10
2921.019880711246
 20
-283.9973957038296
 30
-0.0000000000000209
 41
0.7071071881923923
 10
2918.01988172277
 20
-283.9973977268772
 30
-0.000000000000008
 41
1.000000139662242
 10
2915.019881722769
 20
-283.9973977268774
 30
-0.0000000000000316
 41
0.7071068305645833
 10
2915.01988172277
 20
-280.9973977268771
 30
0.0
 41
1.0
  0
SPLINE
  5
218
330
1F
100
AcDbEntity
  8
taglio n°1
100
AcDbSpline
210
0.0
220
0.0
230
1.0
 70
    15
 71
     2
 72
    12
 73
     9
 74
     0
 42
0.000000001
 43
0.0000000001
 40
-4.712388137743588
 40
-4.712388137743588
 40
-4.712388137743588
 40
0.0
 40
0.0
 40
4.71238926126474
 40
4.71238926126474
 40
9.424778522529955
 40
9.424778522529955
 40
14.13716778379517
 40
14.13716778379517
 40
14.13716778379517
 10
2915.01988172277
 20
-350.9973977268771
 30
0.0
 41
1.0
 10
2915.01988172277
 20
-347.9973987384018
 30
-0.000000000000003
 41
0.7071069003958603
 10
2918.01988172277
 20
-347.9973977268769
 30
0.0
 41
1.0
 10
2921.01988172277
 20
-347.9973977268773
 30
0.000000000000019
 41
0.7071067811865727
 10
2921.01988172277
 20
-350.9973977268771
 30
0.0
 41
1.0
 10
2921.01988172277
 20
-353.9973977268771
 30
0.0000000000000328
 41
0.7071067811865224
 10
2918.01988172277
 20
-353.9973977268774
 30
0.0000000000000284
 41
1.0
 10
2915.01988172277
 20
-353.997397726877
 30
0.0000000000000334
 41
0.7071067811865223
 10
2915.01988172277
 20
-350.9973977268771
 30
0.0
 41
1.0
  0
SPLINE
  5
219
330
1F
100
AcDbEntity
  8
taglio n°1
100
AcDbSpline
210
0.0
220
0.0
230
1.0
 70
    15
 71
     2
 72
    12
 73
     9
 74
     0
 42
0.000000001
 43
0.0000000001
 40
-23.56194490192346
 40
-23.56194490192346
 40
-23.56194490192346
 40
-18.84955592153876
 40
-18.84955592153876
 40
-14.13716694115431
 40
-14.13716694115431
 40
-9.42477796076946
 40
-9.42477796076946
 40
-4.712388980384704
 40
-4.712388980384704
 40
-4.712388980384704
 10
2940.01988172277
 20
-350.9973977268774
 30
0.0
 41
1.0
 10
2940.019881722769
 20
-347.9973977268773
 30
-0.000000000000025
 41
0.7071067811865459
 10
2943.01988172277
 20
-347.9973977268769
 30
0.0
 41
1.0
 10
2946.01988172277
 20
-347.9973977268775
 30
-0.0000000000000225
 41
0.7071067811865729
 10
2946.01988172277
 20
-350.9973977268771
 30
0.0
 41
1.0
 10
2946.01988172277
 20
-353.9973977268774
 30
-0.0000000000000558
 41
0.7071067811865306
 10
2943.01988172277
 20
-353.9973977268774
 30
0.0
 41
1.0
 10
2940.01988172277
 20
-353.9973977268772
 30
-0.0000000000000332
 41
0.7071067811865405
 10
2940.01988172277
 20
-350.9973977268774
 30
0.0
 41
1.0
  0
SPLINE
  5
21A
330
1F
100
AcDbEntity
  8
taglio n°1
100
AcDbSpline
210
0.0
220
0.0
230
1.0
 70
    15
 71
     2
 72
    12
 73
     9
 74
     0
 42
0.000000001
 43
0.0000000001
 40
-14.13716497499209
 40
-14.13716497499209
 40
-14.13716497499209
 40
-9.424777399008804
 40
-9.424777399008804
 40
-4.712387575982977
 40
-4.712387575982977
 40
0.0000011235210842
 40
0.0000011235210842
 40
4.712390946546671
 40
4.712390946546671
 40
4.712390946546671
 10
2940.01988172277
 20
-280.9973977268771
 30
0.0
 41
1.0
 10
2940.01988172277
 20
-277.9973997499251
 30
0.0000000000000025
 41
0.7071070196050963
 10
2943.01988172277
 20
-277.9973977268771
 30
0.0
 41
1.0
 10
2946.01988172277
 20
-277.9973977268774
 30
-0.0000000000000006
 41
0.707106781186522
 10
2946.01988172277
 20
-280.9973977268771
 30
0.0
 41
1.0
 10
2946.01988172277
 20
-283.9973967153529
 30
0.0000000000000402
 41
0.7071069003958607
 10
2943.01988172277
 20
-283.9973977268771
 30
0.0
 41
1.0
 10
2940.01988172277
 20
-283.9973977268772
 30
0.0000000000000207
 41
0.7071067811865527
 10
2940.01988172277
 20
-280.9973977268771
 30
0.0
 41
1.0
  0
SPLINE
  5
21B
330
1F
100
AcDbEntity
  8
taglio n°1
100
AcDbSpline
210
0.0
220
0.0
230
1.0
 70
    15
 71
     2
 72
    12
 73
     9
 74
     0
 42
0.000000001
 43
0.0000000001
 40
-188.4955550021823
 40
-188.4955550021823
 40
-188.4955550021823
 40
-164.9336143134634
 40
-164.9336143134634
 40
-141.3716680071386
 40
-141.3716680071386
 40
-117.8097217008143
 40
-117.8097217008143
 40
-94.24777539448914
 40
-94.24777539448914
 40
-94.24777539448914
 10
2930.51988172277
 20
-330.9973977268771
 30
0.0000000000000568
 41
1.0
 10
2915.519886780392
 20
-330.9973977268772
 30
0.0000000000000471
 41
0.7071069003958389
 10
2915.51988172277
 20
-315.9973977268774
 30
0.0000000000000568
 41
1.0
 10
2915.51988172277
 20
-300.9973977268776
 30
0.0000000000000703
 41
0.707106781186551
 10
2930.51988172277
 20
-300.9973977268774
 30
0.0000000000000284
 41
1.0
 10
2945.51988172277
 20
-300.9973977268775
 30
0.0000000000000151
 41
0.7071067811865605
 10
2945.51988172277
 20
-315.9973977268769
 30
0.0000000000000284
 41
1.0
 10
2945.51988172277
 20
-330.9973977268773
 30
0.0000000000000879
 41
0.7071067811865412
 10
2930.51988172277
 20
-330.9973977268771
 30
0.0000000000000568
 41
1.0
  0
ENDSEC
  0
SECTION
  2
OBJECTS
  0
DICTIONARY
  5
C
330
0
100
AcDbDictionary
281
     1
  3
ACAD_DETAILVIEWSTYLE
350
257
  3
ACAD_GROUP
350
D
  3
ACAD_LAYOUT
350
1A
  3
ACAD_MATERIAL
350
43
  3
ACAD_MLEADERSTYLE
350
256
  3
ACAD_MLINESTYLE
350
17
  3
ACAD_PLOTSETTINGS
350
19
  3
ACAD_PLOTSTYLENAME
350
E
  3
ACAD_SCALELIST
350
47
  3
ACAD_SECTIONVIEWSTYLE
350
258
  3
ACAD_TABLESTYLE
350
255
  3
ACAD_VISUALSTYLE
350
2A
  3
AcDbVariableDictionary
350
21C
  0
DICTIONARY
  5
257
102
{ACAD_REACTORS
330
C
102
}
330
C
100
AcDbDictionary
281
     1
  0
DICTIONARY
  5
D
102
{ACAD_REACTORS
330
C
102
}
330
C
100
AcDbDictionary
281
     1
  0
DICTIONARY
  5
1A
102
{ACAD_REACTORS
330
C
102
}
330
C
100
AcDbDictionary
281
     1
  3
Layout1
350
1E
  3
Layout2
350
26
  3
Model
350
22
  0
DICTIONARY
  5
43
102
{ACAD_REACTORS
330
C
102
}
330
C
100
AcDbDictionary
281
     1
  3
ByBlock
350
45
  3
ByLayer
350
44
  3
Global
350
46
  0
DICTIONARY
  5
256
102
{ACAD_REACTORS
330
C
102
}
330
C
100
AcDbDictionary
281
     1
  0
DICTIONARY
  5
17
102
{ACAD_REACTORS
330
C
102
}
330
C
100
AcDbDictionary
281
     1
  3
Standard
350
18
  0
DICTIONARY
  5
19
102
{ACAD_REACTORS
330
C
102
}
330
C
100
AcDbDictionary
281
     1
  0
ACDBDICTIONARYWDFLT
  5
E
102
{ACAD_REACTORS
330
C
102
}
330
C
100
AcDbDictionary
281
     1
  3
Normal
350
F
100
AcDbDictionaryWithDefault
340
F
  0
DICTIONARY
  5
47
102
{ACAD_REACTORS
330
C
102
}
330
C
100
AcDbDictionary
281
     1
  3
A0
350
48
  3
A1
350
49
  3
A2
350
4A
  3
A3
350
4B
  3
A4
350
4C
  3
A5
350
4D
  3
A6
350
4E
  3
A7
350
4F
  3
A8
350
50
  3
A9
350
51
  3
B0
350
52
  3
B1
350
53
  3
B2
350
54
  3
B3
350
55
  3
B4
350
56
  3
B5
350
57
  3
B6
350
58
  3
B7
350
59
  3
B8
350
5A
  3
B9
350
5B
  3
C0
350
5C
  3
C1
350
5D
  3
C2
350
5E
  3
C3
350
5F
  3
C4
350
60
  3
C5
350
61
  3
C6
350
62
  3
C7
350
63
  3
C8
350
64
  3
C9
350
65
  3
D0
350
66
  3
D1
350
67
  3
D2
350
68
  0
DICTIONARY
  5
258
102
{ACAD_REACTORS
330
C
102
}
330
C
100
AcDbDictionary
281
     1
  0
DICTIONARY
  5
255
102
{ACAD_REACTORS
330
C
102
}
330
C
100
AcDbDictionary
281
     1
  0
DICTIONARY
  5
2A
102
{ACAD_REACTORS
330
C
102
}
330
C
100
AcDbDictionary
281
     1
  3
2dWireframe
350
2F
  3
Basic
350
32
  3
Brighten
350
36
  3
ColorChange
350
3A
  3
Conceptual
350
34
  3
Dim
350
35
  3
EdgeColorOff
350
3D
  3
Facepattern
350
39
  3
Flat
350
2B
  3
FlatWithEdges
350
2C
  3
Gouraud
350
2D
  3
GouraudWithEdges
350
2E
  3
Hidden
350
31
  3
JitterOff
350
3B
  3
Linepattern
350
38
  3
OverhangOff
350
3C
  3
Realistic
350
33
  3
Shaded
350
42
  3
Shaded with edges
350
41
  3
Shades of Gray
350
3E
  3
Sketchy
350
3F
  3
Thicken
350
37
  3
Wireframe
350
30
  3
X-Ray
350
40
  0
DICTIONARY
  5
21C
102
{ACAD_REACTORS
330
C
102
}
330
C
100
AcDbDictionary
281
     1
  3
CANNOSCALE
350
21D
  3
MSLTSCALE
350
21E
  0
LAYOUT
  5
1E
102
{ACAD_REACTORS
330
1A
102
}
330
1A
100
AcDbPlotSettings
  1

  2
none_device
  4

  6

 40
0.0
 41
0.0
 42
0.0
 43
0.0
 44
0.0
 45
0.0
 46
0.0
 47
0.0
 48
0.0
 49
0.0
140
0.0
141
0.0
142
1.0
143
1.0
 70
   688
 72
     0
 73
     0
 74
     5
  7

 75
    16
 76
     0
 77
     2
 78
   300
147
1.0
148
0.0
149
0.0
100
AcDbLayout
  1
Layout1
 70
     1
 71
     1
 10
0.0
 20
0.0
 11
12.0
 21
9.0
 12
0.0
 22
0.0
 32
0.0
 14
1.000000000000000E+20
 24
1.000000000000000E+20
 34
1.000000000000000E+20
 15
-1.000000000000000E+20
 25
-1.000000000000000E+20
 35
-1.000000000000000E+20
146
0.0
 13
0.0
 23
0.0
 33
0.0
 16
1.0
 26
0.0
 36
0.0
 17
0.0
 27
1.0
 37
0.0
 76
     0
330
1B
  0
LAYOUT
  5
26
102
{ACAD_REACTORS
330
1A
102
}
330
1A
100
AcDbPlotSettings
  1

  2
none_device
  4

  6

 40
0.0
 41
0.0
 42
0.0
 43
0.0
 44
0.0
 45
0.0
 46
0.0
 47
0.0
 48
0.0
 49
0.0
140
0.0
141
0.0
142
1.0
143
1.0
 70
   688
 72
     0
 73
     0
 74
     5
  7

 75
    16
 76
     0
 77
     2
 78
   300
147
1.0
148
0.0
149
0.0
100
AcDbLayout
  1
Layout2
 70
     1
 71
     2
 10
0.0
 20
0.0
 11
0.0
 21
0.0
 12
0.0
 22
0.0
 32
0.0
 14
0.0
 24
0.0
 34
0.0
 15
0.0
 25
0.0
 35
0.0
146
0.0
 13
0.0
 23
0.0
 33
0.0
 16
1.0
 26
0.0
 36
0.0
 17
0.0
 27
1.0
 37
0.0
 76
     0
330
23
  0
LAYOUT
  5
22
102
{ACAD_REACTORS
330
1A
102
}
330
1A
100
AcDbPlotSettings
  1

  2
none_device
  4
Letter_(8.50_x_11.00_Inches)
  6

 40
6.35
 41
6.35
 42
6.35000508
 43
6.35000508
 44
215.9
 45
279.4
 46
0.0
 47
0.0
 48
0.0
 49
0.0
140
0.0
141
0.0
142
1.0
143
1.0
 70
  1712
 72
     0
 73
     0
 74
     0
  7

 75
     0
 76
     0
 77
     2
 78
   300
147
1.0
148
0.0
149
0.0
100
AcDbLayout
  1
Model
 70
     1
 71
     0
 10
0.0
 20
0.0
 11
12.0
 21
9.0
 12
0.0
 22
0.0
 32
0.0
 14
2859.854629716735
 24
-591.6309017694346
 34
-0.000000000010068
 15
3212.742011724652
 25
-203.5839955232696
 35
0.0000000000019897
146
0.0
 13
0.0
 23
0.0
 33
0.0
 16
1.0
 26
0.0
 36
0.0
 17
0.0
 27
1.0
 37
0.0
 76
     0
330
1F
331
29
  0
MATERIAL
  5
45
102
{ACAD_REACTORS
330
43
102
}
102
{ACAD_XDICTIONARY
360
251
102
}
330
43
100
AcDbMaterial
  1
ByBlock
  0
MATERIAL
  5
44
102
{ACAD_REACTORS
330
43
102
}
102
{ACAD_XDICTIONARY
360
24F
102
}
330
43
100
AcDbMaterial
  1
ByLayer
  0
MATERIAL
  5
46
102
{ACAD_REACTORS
330
43
102
}
102
{ACAD_XDICTIONARY
360
253
102
}
330
43
100
AcDbMaterial
  1
Global
  0
MLINESTYLE
  5
18
102
{ACAD_REACTORS
330
17
102
}
330
17
100
AcDbMlineStyle
  2
Standard
 70
     0
  3

 62
   256
 51
90.0
 52
90.0
 71
     2
 49
0.5
 62
   256
  6
BYLAYER
 49
-0.5
 62
   256
  6
BYLAYER
  0
ACDBPLACEHOLDER
  5
F
102
{ACAD_REACTORS
330
E
102
}
330
E
  0
SCALE
  5
48
102
{ACAD_REACTORS
330
47
102
}
330
47
100
AcDbScale
 70
     0
300
1:1
140
1.0
141
1.0
290
     1
  0
SCALE
  5
49
102
{ACAD_REACTORS
330
47
102
}
330
47
100
AcDbScale
 70
     0
300
1:2
140
1.0
141
2.0
290
     0
  0
SCALE
  5
4A
102
{ACAD_REACTORS
330
47
102
}
330
47
100
AcDbScale
 70
     0
300
1:4
140
1.0
141
4.0
290
     0
  0
SCALE
  5
4B
102
{ACAD_REACTORS
330
47
102
}
330
47
100
AcDbScale
 70
     0
300
1:5
140
1.0
141
5.0
290
     0
  0
SCALE
  5
4C
102
{ACAD_REACTORS
330
47
102
}
330
47
100
AcDbScale
 70
     0
300
1:8
140
1.0
141
8.0
290
     0
  0
SCALE
  5
4D
102
{ACAD_REACTORS
330
47
102
}
330
47
100
AcDbScale
 70
     0
300
1:10
140
1.0
141
10.0
290
     0
  0
SCALE
  5
4E
102
{ACAD_REACTORS
330
47
102
}
330
47
100
AcDbScale
 70
     0
300
1:16
140
1.0
141
16.0
290
     0
  0
SCALE
  5
4F
102
{ACAD_REACTORS
330
47
102
}
330
47
100
AcDbScale
 70
     0
300
1:20
140
1.0
141
20.0
290
     0
  0
SCALE
  5
50
102
{ACAD_REACTORS
330
47
102
}
330
47
100
AcDbScale
 70
     0
300
1:30
140
1.0
141
30.0
290
     0
  0
SCALE
  5
51
102
{ACAD_REACTORS
330
47
102
}
330
47
100
AcDbScale
 70
     0
300
1:40
140
1.0
141
40.0
290
     0
  0
SCALE
  5
52
102
{ACAD_REACTORS
330
47
102
}
330
47
100
AcDbScale
 70
     0
300
1:50
140
1.0
141
50.0
290
     0
  0
SCALE
  5
53
102
{ACAD_REACTORS
330
47
102
}
330
47
100
AcDbScale
 70
     0
300
1:100
140
1.0
141
100.0
290
     0
  0
SCALE
  5
54
102
{ACAD_REACTORS
330
47
102
}
330
47
100
AcDbScale
 70
     0
300
2:1
140
2.0
141
1.0
290
     0
  0
SCALE
  5
55
102
{ACAD_REACTORS
330
47
102
}
330
47
100
AcDbScale
 70
     0
300
4:1
140
4.0
141
1.0
290
     0
  0
SCALE
  5
56
102
{ACAD_REACTORS
330
47
102
}
330
47
100
AcDbScale
 70
     0
300
8:1
140
8.0
141
1.0
290
     0
  0
SCALE
  5
57
102
{ACAD_REACTORS
330
47
102
}
330
47
100
AcDbScale
 70
     0
300
10:1
140
10.0
141
1.0
290
     0
  0
SCALE
  5
58
102
{ACAD_REACTORS
330
47
102
}
330
47
100
AcDbScale
 70
     0
300
100:1
140
100.0
141
1.0
290
     0
  0
SCALE
  5
59
102
{ACAD_REACTORS
330
47
102
}
330
47
100
AcDbScale
 70
     0
300
1/128" = 1'-0"
140
0.0078125
141
12.0
290
     0
  0
SCALE
  5
5A
102
{ACAD_REACTORS
330
47
102
}
330
47
100
AcDbScale
 70
     0
300
1/64" = 1'-0"
140
0.015625
141
12.0
290
     0
  0
SCALE
  5
5B
102
{ACAD_REACTORS
330
47
102
}
330
47
100
AcDbScale
 70
     0
300
1/32" = 1'-0"
140
0.03125
141
12.0
290
     0
  0
SCALE
  5
5C
102
{ACAD_REACTORS
330
47
102
}
330
47
100
AcDbScale
 70
     0
300
1/16" = 1'-0"
140
0.0625
141
12.0
290
     0
  0
SCALE
  5
5D
102
{ACAD_REACTORS
330
47
102
}
330
47
100
AcDbScale
 70
     0
300
3/32" = 1'-0"
140
0.09375
141
12.0
290
     0
  0
SCALE
  5
5E
102
{ACAD_REACTORS
330
47
102
}
330
47
100
AcDbScale
 70
     0
300
1/8" = 1'-0"
140
0.125
141
12.0
290
     0
  0
SCALE
  5
5F
102
{ACAD_REACTORS
330
47
102
}
330
47
100
AcDbScale
 70
     0
300
3/16" = 1'-0"
140
0.1875
141
12.0
290
     0
  0
SCALE
  5
60
102
{ACAD_REACTORS
330
47
102
}
330
47
100
AcDbScale
 70
     0
300
1/4" = 1'-0"
140
0.25
141
12.0
290
     0
  0
SCALE
  5
61
102
{ACAD_REACTORS
330
47
102
}
330
47
100
AcDbScale
 70
     0
300
3/8" = 1'-0"
140
0.375
141
12.0
290
     0
  0
SCALE
  5
62
102
{ACAD_REACTORS
330
47
102
}
330
47
100
AcDbScale
 70
     0
300
1/2" = 1'-0"
140
0.5
141
12.0
290
     0
  0
SCALE
  5
63
102
{ACAD_REACTORS
330
47
102
}
330
47
100
AcDbScale
 70
     0
300
3/4" = 1'-0"
140
0.75
141
12.0
290
     0
  0
SCALE
  5
64
102
{ACAD_REACTORS
330
47
102
}
330
47
100
AcDbScale
 70
     0
300
1" = 1'-0"
140
1.0
141
12.0
290
     0
  0
SCALE
  5
65
102
{ACAD_REACTORS
330
47
102
}
330
47
100
AcDbScale
 70
     0
300
1-1/2" = 1'-0"
140
1.5
141
12.0
290
     0
  0
SCALE
  5
66
102
{ACAD_REACTORS
330
47
102
}
330
47
100
AcDbScale
 70
     0
300
3" = 1'-0"
140
3.0
141
12.0
290
     0
  0
SCALE
  5
67
102
{ACAD_REACTORS
330
47
102
}
330
47
100
AcDbScale
 70
     0
300
6" = 1'-0"
140
6.0
141
12.0
290
     0
  0
SCALE
  5
68
102
{ACAD_REACTORS
330
47
102
}
330
47
100
AcDbScale
 70
     0
300
1'-0" = 1'-0"
140
12.0
141
12.0
290
     0
  0
VISUALSTYLE
  5
2F
102
{ACAD_REACTORS
330
2A
102
}
102
{ACAD_XDICTIONARY
360
227
102
}
330
2A
100
AcDbVisualStyle
  2
2dWireframe
 70
     4
 71
     0
 72
     2
 73
     0
 90
        0
 40
0.6
 41
30.0
 62
     5
 63
     7
421
 16777215
 74
     1
 91
        4
 64
     7
 65
   257
 75
     1
175
     1
 42
1.0
 92
        0
 66
   257
 43
1.0
 76
     1
 77
     6
 78
     2
 67
     7
 79
     5
170
     0
171
     0
290
     0
174
     0
 93
        1
 44
0.0
173
     0
291
     0
 45
0.0
1001
ACAD
1000
AcDbSavedByObjectVersion
1070
     0
  0
VISUALSTYLE
  5
32
102
{ACAD_REACTORS
330
2A
102
}
102
{ACAD_XDICTIONARY
360
22D
102
}
330
2A
100
AcDbVisualStyle
  2
Basic
 70
     7
 71
     1
 72
     0
 73
     1
 90
        0
 40
0.6
 41
30.0
 62
     5
 63
     7
421
 16777215
 74
     0
 91
        4
 64
     7
 65
   257
 75
     1
175
     1
 42
1.0
 92
        8
 66
     7
 43
1.0
 76
     1
 77
     6
 78
     2
 67
     7
 79
     5
170
     0
171
     0
290
     0
174
     0
 93
        1
 44
0.0
173
     0
291
     1
 45
0.0
1001
ACAD
1000
AcDbSavedByObjectVersion
1070
     0
  0
VISUALSTYLE
  5
36
102
{ACAD_REACTORS
330
2A
102
}
102
{ACAD_XDICTIONARY
360
235
102
}
330
2A
100
AcDbVisualStyle
  2
Brighten
 70
    12
 71
     2
 72
     2
 73
     0
 90
        0
 40
0.6
 41
30.0
 62
     5
 63
     7
421
 16777215
 74
     1
 91
        4
 64
     7
 65
   257
 75
     1
175
     1
 42
1.0
 92
        8
 66
     7
 43
1.0
 76
     1
 77
     6
 78
     2
 67
     7
 79
     5
170
     0
171
     0
290
     0
174
     0
 93
        1
 44
50.0
173
     0
291
     1
 45
0.0
1001
ACAD
1000
AcDbSavedByObjectVersion
1070
     0
  0
VISUALSTYLE
  5
3A
102
{ACAD_REACTORS
330
2A
102
}
102
{ACAD_XDICTIONARY
360
23D
102
}
330
2A
100
AcDbVisualStyle
  2
ColorChange
 70
    16
 71
     2
 72
     2
 73
     3
 90
        0
 40
0.6
 41
30.0
 62
     5
 63
     8
421
  8421504
 74
     1
 91
        4
 64
     7
 65
   257
 75
     1
175
     1
 42
1.0
 92
        8
 66
     8
424
  8421504
 43
1.0
 76
     1
 77
     6
 78
     2
 67
     7
 79
     5
170
     0
171
     0
290
     0
174
     0
 93
        1
 44
0.0
173
     0
291
     1
 45
0.0
1001
ACAD
1000
AcDbSavedByObjectVersion
1070
     0
  0
VISUALSTYLE
  5
34
102
{ACAD_REACTORS
330
2A
102
}
102
{ACAD_XDICTIONARY
360
231
102
}
330
2A
100
AcDbVisualStyle
  2
Conceptual
 70
     9
 71
     3
 72
     2
 73
     0
 90
        0
 40
0.6
 41
30.0
 62
     5
 63
     7
421
 16777215
 74
     2
 91
        2
 64
     7
 65
   257
 75
     1
175
     1
 42
179.0
 92
        8
 66
     7
 43
1.0
 76
     1
 77
     6
 78
     2
 67
     7
 79
     3
170
     0
171
     0
290
     0
174
     0
 93
        1
 44
0.0
173
     0
291
     0
 45
0.0
1001
ACAD
1000
AcDbSavedByObjectVersion
1070
     0
  0
VISUALSTYLE
  5
35
102
{ACAD_REACTORS
330
2A
102
}
102
{ACAD_XDICTIONARY
360
233
102
}
330
2A
100
AcDbVisualStyle
  2
Dim
 70
    11
 71
     2
 72
     2
 73
     0
 90
        0
 40
0.6
 41
30.0
 62
     5
 63
     7
421
 16777215
 74
     1
 91
        4
 64
     7
 65
   257
 75
     1
175
     1
 42
1.0
 92
        8
 66
     7
 43
1.0
 76
     1
 77
     6
 78
     2
 67
     7
 79
     5
170
     0
171
     0
290
     0
174
     0
 93
        1
 44
-50.0
173
     0
291
     1
 45
0.0
1001
ACAD
1000
AcDbSavedByObjectVersion
1070
     0
  0
VISUALSTYLE
  5
3D
102
{ACAD_REACTORS
330
2A
102
}
102
{ACAD_XDICTIONARY
360
243
102
}
330
2A
100
AcDbVisualStyle
  2
EdgeColorOff
 70
    22
 71
     2
 72
     2
 73
     0
 90
        0
 40
0.6
 41
30.0
 62
     5
 63
     7
421
 16777215
 74
     1
 91
        4
 64
     7
 65
   257
 75
     1
175
     1
 42
1.0
 92
        8
 66
     7
 43
1.0
 76
     1
 77
     6
 78
     2
 67
     7
 79
     5
170
     0
171
     0
290
     0
174
     0
 93
        1
 44
0.0
173
     0
291
     1
 45
0.0
1001
ACAD
1000
AcDbSavedByObjectVersion
1070
     0
  0
VISUALSTYLE
  5
39
102
{ACAD_REACTORS
330
2A
102
}
102
{ACAD_XDICTIONARY
360
23B
102
}
330
2A
100
AcDbVisualStyle
  2
Facepattern
 70
    15
 71
     2
 72
     2
 73
     0
 90
        0
 40
0.6
 41
30.0
 62
     5
 63
     7
421
 16777215
 74
     1
 91
        4
 64
     7
 65
   257
 75
     1
175
     1
 42
1.0
 92
        8
 66
     7
 43
1.0
 76
     1
 77
     6
 78
     2
 67
     7
 79
     5
170
     0
171
     0
290
     0
174
     0
 93
        1
 44
0.0
173
     0
291
     1
 45
0.0
1001
ACAD
1000
AcDbSavedByObjectVersion
1070
     0
  0
VISUALSTYLE
  5
2B
102
{ACAD_REACTORS
330
2A
102
}
102
{ACAD_XDICTIONARY
360
21F
102
}
330
2A
100
AcDbVisualStyle
  2
Flat
 70
     0
 71
     2
 72
     1
 73
     1
 90
        2
 40
0.6
 41
30.0
 62
     5
 63
     7
421
 16777215
 74
     0
 91
        0
 64
     7
 65
   257
 75
     1
175
     1
 42
1.0
 92
        8
 66
     7
 43
1.0
 76
     1
 77
     6
 78
     2
 67
     7
 79
     5
170
     0
171
     0
290
     0
174
     0
 93
       13
 44
0.0
173
     0
291
     1
 45
0.0
1001
ACAD
1000
AcDbSavedByObjectVersion
1070
     0
  0
VISUALSTYLE
  5
2C
102
{ACAD_REACTORS
330
2A
102
}
102
{ACAD_XDICTIONARY
360
221
102
}
330
2A
100
AcDbVisualStyle
  2
FlatWithEdges
 70
     1
 71
     2
 72
     1
 73
     1
 90
        2
 40
0.6
 41
30.0
 62
     5
 63
     7
421
 16777215
 74
     1
 91
        0
 64
     7
 65
   257
 75
     1
175
     1
 42
1.0
 92
        0
 66
   257
 43
1.0
 76
     1
 77
     6
 78
     2
 67
     7
 79
     5
170
     0
171
     0
290
     0
174
     0
 93
       13
 44
0.0
173
     0
291
     1
 45
0.0
1001
ACAD
1000
AcDbSavedByObjectVersion
1070
     0
  0
VISUALSTYLE
  5
2D
102
{ACAD_REACTORS
330
2A
102
}
102
{ACAD_XDICTIONARY
360
223
102
}
330
2A
100
AcDbVisualStyle
  2
Gouraud
 70
     2
 71
     2
 72
     2
 73
     1
 90
        2
 40
0.6
 41
30.0
 62
     5
 63
     7
421
 16777215
 74
     0
 91
        0
 64
     7
 65
   257
 75
     1
175
     1
 42
1.0
 92
        0
 66
     7
 43
1.0
 76
     1
 77
     6
 78
     2
 67
     7
 79
     5
170
     0
171
     0
290
     0
174
     0
 93
       13
 44
0.0
173
     0
291
     1
 45
0.0
1001
ACAD
1000
AcDbSavedByObjectVersion
1070
     0
  0
VISUALSTYLE
  5
2E
102
{ACAD_REACTORS
330
2A
102
}
102
{ACAD_XDICTIONARY
360
225
102
}
330
2A
100
AcDbVisualStyle
  2
GouraudWithEdges
 70
     3
 71
     2
 72
     2
 73
     1
 90
        2
 40
0.6
 41
30.0
 62
     5
 63
     7
421
 16777215
 74
     1
 91
        0
 64
     7
 65
   257
 75
     1
175
     1
 42
1.0
 92
        0
 66
   257
 43
1.0
 76
     1
 77
     6
 78
     2
 67
     7
 79
     5
170
     0
171
     0
290
     0
174
     0
 93
       13
 44
0.0
173
     0
291
     1
 45
0.0
1001
ACAD
1000
AcDbSavedByObjectVersion
1070
     0
  0
VISUALSTYLE
  5
31
102
{ACAD_REACTORS
330
2A
102
}
102
{ACAD_XDICTIONARY
360
22B
102
}
330
2A
100
AcDbVisualStyle
  2
Hidden
 70
     6
 71
     1
 72
     2
 73
     2
 90
        0
 40
0.6
 41
30.0
 62
     5
 63
     7
421
 16777215
 74
     2
 91
        2
 64
     7
 65
   257
 75
     2
175
     1
 42
40.0
 92
        0
 66
   257
 43
1.0
 76
     1
 77
     6
 78
     2
 67
     7
 79
     3
170
     0
171
     0
290
     0
174
     0
 93
        1
 44
0.0
173
     0
291
     0
 45
0.0
1001
ACAD
1000
AcDbSavedByObjectVersion
1070
     0
  0
VISUALSTYLE
  5
3B
102
{ACAD_REACTORS
330
2A
102
}
102
{ACAD_XDICTIONARY
360
23F
102
}
330
2A
100
AcDbVisualStyle
  2
JitterOff
 70
    20
 71
     2
 72
     2
 73
     0
 90
        0
 40
0.6
 41
30.0
 62
     5
 63
     7
421
 16777215
 74
     1
 91
        4
 64
     7
 65
   257
 75
     1
175
     1
 42
1.0
 92
       10
 66
     7
 43
1.0
 76
     1
 77
     6
 78
     2
 67
     7
 79
     5
170
     0
171
     0
290
     0
174
     0
 93
        1
 44
0.0
173
     0
291
     1
 45
0.0
1001
ACAD
1000
AcDbSavedByObjectVersion
1070
     0
  0
VISUALSTYLE
  5
38
102
{ACAD_REACTORS
330
2A
102
}
102
{ACAD_XDICTIONARY
360
239
102
}
330
2A
100
AcDbVisualStyle
  2
Linepattern
 70
    14
 71
     2
 72
     2
 73
     0
 90
        0
 40
0.6
 41
30.0
 62
     5
 63
     7
421
 16777215
 74
     1
 91
        4
 64
     7
 65
   257
 75
     7
175
     7
 42
1.0
 92
        8
 66
     7
 43
1.0
 76
     1
 77
     6
 78
     2
 67
     7
 79
     5
170
     0
171
     0
290
     0
174
     0
 93
        1
 44
0.0
173
     0
291
     1
 45
0.0
1001
ACAD
1000
AcDbSavedByObjectVersion
1070
     0
  0
VISUALSTYLE
  5
3C
102
{ACAD_REACTORS
330
2A
102
}
102
{ACAD_XDICTIONARY
360
241
102
}
330
2A
100
AcDbVisualStyle
  2
OverhangOff
 70
    21
 71
     2
 72
     2
 73
     0
 90
        0
 40
0.6
 41
30.0
 62
     5
 63
     7
421
 16777215
 74
     1
 91
        4
 64
     7
 65
   257
 75
     1
175
     1
 42
1.0
 92
        9
 66
     7
 43
1.0
 76
     1
 77
     6
 78
     2
 67
     7
 79
     5
170
     0
171
     0
290
     0
174
     0
 93
        1
 44
0.0
173
     0
291
     1
 45
0.0
1001
ACAD
1000
AcDbSavedByObjectVersion
1070
     0
  0
VISUALSTYLE
  5
33
102
{ACAD_REACTORS
330
2A
102
}
102
{ACAD_XDICTIONARY
360
22F
102
}
330
2A
100
AcDbVisualStyle
  2
Realistic
 70
     8
 71
     2
 72
     3
 73
     0
 90
        2
 40
0.6
 41
30.0
 62
     5
 63
     7
421
 16777215
 74
     0
 91
        0
 64
     7
 65
   257
 75
     1
175
     1
 42
1.0
 92
        8
 66
   257
 43
1.0
 76
     1
 77
     6
 78
     2
 67
     7
 79
     3
170
     0
171
     0
290
     0
174
     0
 93
       13
 44
0.0
173
     0
291
     0
 45
0.0
1001
ACAD
1000
AcDbSavedByObjectVersion
1070
     0
  0
VISUALSTYLE
  5
42
102
{ACAD_REACTORS
330
2A
102
}
102
{ACAD_XDICTIONARY
360
24D
102
}
330
2A
100
AcDbVisualStyle
  2
Shaded
 70
    27
 71
     2
 72
     2
 73
     1
 90
        2
 40
0.6
 41
30.0
 62
     5
 63
     7
421
 16777215
 74
     0
 91
        4
 64
     7
 65
   257
 75
     1
175
     1
 42
1.0
 92
        8
 66
   257
 43
1.0
 76
     1
 77
     6
 78
     2
 67
     8
425
  7895160
 79
     3
170
     0
171
     0
290
     0
174
     0
 93
        5
 44
0.0
173
     0
291
     0
 45
0.0
1001
ACAD
1000
AcDbSavedByObjectVersion
1070
     0
  0
VISUALSTYLE
  5
41
102
{ACAD_REACTORS
330
2A
102
}
102
{ACAD_XDICTIONARY
360
24B
102
}
330
2A
100
AcDbVisualStyle
  2
Shaded with edges
 70
    26
 71
     2
 72
     2
 73
     1
 90
        2
 40
0.6
 41
30.0
 62
     5
 63
     7
421
 16777215
 74
     1
 91
       10
 64
     7
 65
   257
 75
     2
175
     1
 42
1.0
 92
        8
 66
   257
 43
1.0
 76
     1
 77
     6
 78
     2
 67
     7
 79
     3
170
     0
171
     0
290
     0
174
     0
 93
        5
 44
0.0
173
     0
291
     0
 45
0.0
1001
ACAD
1000
AcDbSavedByObjectVersion
1070
     0
  0
VISUALSTYLE
  5
3E
102
{ACAD_REACTORS
330
2A
102
}
102
{ACAD_XDICTIONARY
360
245
102
}
330
2A
100
AcDbVisualStyle
  2
Shades of Gray
 70
    23
 71
     2
 72
     2
 73
     3
 90
        0
 40
0.6
 41
30.0
 62
     5
 63
     7
421
 16777215
 74
     2
 91
        2
 64
     7
 65
     7
 75
     1
175
     1
 42
40.0
 92
        8
 66
     7
 43
1.0
 76
     1
 77
     6
 78
     2
 67
     7
 79
     3
170
     0
171
     0
290
     0
174
     0
 93
        1
 44
0.0
173
     0
291
     0
 45
0.0
1001
ACAD
1000
AcDbSavedByObjectVersion
1070
     0
  0
VISUALSTYLE
  5
3F
102
{ACAD_REACTORS
330
2A
102
}
102
{ACAD_XDICTIONARY
360
247
102
}
330
2A
100
AcDbVisualStyle
  2
Sketchy
 70
    24
 71
     1
 72
     2
 73
     2
 90
        0
 40
0.6
 41
30.0
 62
     5
 63
     7
421
 16777215
 74
     2
 91
        2
 64
     7
 65
     7
 75
     1
175
     1
 42
40.0
 92
       11
 66
     7
 43
1.0
 76
     1
 77
     6
 78
     2
 67
     7
 79
     6
170
     0
171
     0
290
     0
174
     0
 93
        1
 44
0.0
173
     0
291
     0
 45
0.0
1001
ACAD
1000
AcDbSavedByObjectVersion
1070
     0
  0
VISUALSTYLE
  5
37
102
{ACAD_REACTORS
330
2A
102
}
102
{ACAD_XDICTIONARY
360
237
102
}
330
2A
100
AcDbVisualStyle
  2
Thicken
 70
    13
 71
     2
 72
     2
 73
     0
 90
        0
 40
0.6
 41
30.0
 62
     5
 63
     7
421
 16777215
 74
     1
 91
        4
 64
     7
 65
   257
 75
     1
175
     1
 42
1.0
 92
       12
 66
     7
 43
1.0
 76
     1
 77
     6
 78
     2
 67
     7
 79
     5
170
     0
171
     0
290
     0
174
     0
 93
        1
 44
0.0
173
     0
291
     1
 45
0.0
1001
ACAD
1000
AcDbSavedByObjectVersion
1070
     0
  0
VISUALSTYLE
  5
30
102
{ACAD_REACTORS
330
2A
102
}
102
{ACAD_XDICTIONARY
360
229
102
}
330
2A
100
AcDbVisualStyle
  2
Wireframe
 70
     5
 71
     0
 72
     2
 73
     0
 90
        0
 40
0.6
 41
30.0
 62
     5
 63
     7
421
 16777215
 74
     1
 91
        4
 64
     7
 65
   257
 75
     1
175
     1
 42
1.0
 92
        0
 66
   257
 43
1.0
 76
     1
 77
     6
 78
     2
 67
     7
 79
     3
170
     0
171
     0
290
     0
174
     0
 93
        1
 44
0.0
173
     0
291
     0
 45
0.0
1001
ACAD
1000
AcDbSavedByObjectVersion
1070
     0
  0
VISUALSTYLE
  5
40
102
{ACAD_REACTORS
330
2A
102
}
102
{ACAD_XDICTIONARY
360
249
102
}
330
2A
100
AcDbVisualStyle
  2
X-Ray
 70
    25
 71
     2
 72
     2
 73
     1
 90
        1
 40
0.5
 41
30.0
 62
     5
 63
     7
421
 16777215
 74
     1
 91
        0
 64
     7
 65
   257
 75
     1
175
     1
 42
1.0
 92
        8
 66
     7
 43
1.0
 76
     1
 77
     6
 78
     2
 67
     7
 79
     3
170
     0
171
     0
290
     0
174
     0
 93
       13
 44
0.0
173
     0
291
     0
 45
0.0
1001
ACAD
1000
AcDbSavedByObjectVersion
1070
     0
  0
DICTIONARYVAR
  5
21D
102
{ACAD_REACTORS
330
21C
102
}
330
21C
100
DictionaryVariables
280
     0
  1
1:1
  0
DICTIONARYVAR
  5
21E
102
{ACAD_REACTORS
330
21C
102
}
330
21C
100
DictionaryVariables
280
     0
  1
1
  0
DICTIONARY
  5
251
330
45
100
AcDbDictionary
280
     1
281
     1
  3
ACAD_XREC_ROUNDTRIP
360
252
  0
DICTIONARY
  5
24F
330
44
100
AcDbDictionary
280
     1
281
     1
  3
ACAD_XREC_ROUNDTRIP
360
250
  0
DICTIONARY
  5
253
330
46
100
AcDbDictionary
280
     1
281
     1
  3
ACAD_XREC_ROUNDTRIP
360
254
  0
DICTIONARY
  5
227
330
2F
100
AcDbDictionary
280
     1
281
     1
  3
ACAD_XREC_ROUNDTRIP
360
228
  0
DICTIONARY
  5
22D
330
32
100
AcDbDictionary
280
     1
281
     1
  3
ACAD_XREC_ROUNDTRIP
360
22E
  0
DICTIONARY
  5
235
330
36
100
AcDbDictionary
280
     1
281
     1
  3
ACAD_XREC_ROUNDTRIP
360
236
  0
DICTIONARY
  5
23D
330
3A
100
AcDbDictionary
280
     1
281
     1
  3
ACAD_XREC_ROUNDTRIP
360
23E
  0
DICTIONARY
  5
231
330
34
100
AcDbDictionary
280
     1
281
     1
  3
ACAD_XREC_ROUNDTRIP
360
232
  0
DICTIONARY
  5
233
330
35
100
AcDbDictionary
280
     1
281
     1
  3
ACAD_XREC_ROUNDTRIP
360
234
  0
DICTIONARY
  5
243
330
3D
100
AcDbDictionary
280
     1
281
     1
  3
ACAD_XREC_ROUNDTRIP
360
244
  0
DICTIONARY
  5
23B
330
39
100
AcDbDictionary
280
     1
281
     1
  3
ACAD_XREC_ROUNDTRIP
360
23C
  0
DICTIONARY
  5
21F
330
2B
100
AcDbDictionary
280
     1
281
     1
  3
ACAD_XREC_ROUNDTRIP
360
220
  0
DICTIONARY
  5
221
330
2C
100
AcDbDictionary
280
     1
281
     1
  3
ACAD_XREC_ROUNDTRIP
360
222
  0
DICTIONARY
  5
223
330
2D
100
AcDbDictionary
280
     1
281
     1
  3
ACAD_XREC_ROUNDTRIP
360
224
  0
DICTIONARY
  5
225
330
2E
100
AcDbDictionary
280
     1
281
     1
  3
ACAD_XREC_ROUNDTRIP
360
226
  0
DICTIONARY
  5
22B
330
31
100
AcDbDictionary
280
     1
281
     1
  3
ACAD_XREC_ROUNDTRIP
360
22C
  0
DICTIONARY
  5
23F
330
3B
100
AcDbDictionary
280
     1
281
     1
  3
ACAD_XREC_ROUNDTRIP
360
240
  0
DICTIONARY
  5
239
330
38
100
AcDbDictionary
280
     1
281
     1
  3
ACAD_XREC_ROUNDTRIP
360
23A
  0
DICTIONARY
  5
241
330
3C
100
AcDbDictionary
280
     1
281
     1
  3
ACAD_XREC_ROUNDTRIP
360
242
  0
DICTIONARY
  5
22F
330
33
100
AcDbDictionary
280
     1
281
     1
  3
ACAD_XREC_ROUNDTRIP
360
230
  0
DICTIONARY
  5
24D
330
42
100
AcDbDictionary
280
     1
281
     1
  3
ACAD_XREC_ROUNDTRIP
360
24E
  0
DICTIONARY
  5
24B
330
41
100
AcDbDictionary
280
     1
281
     1
  3
ACAD_XREC_ROUNDTRIP
360
24C
  0
DICTIONARY
  5
245
330
3E
100
AcDbDictionary
280
     1
281
     1
  3
ACAD_XREC_ROUNDTRIP
360
246
  0
DICTIONARY
  5
247
330
3F
100
AcDbDictionary
280
     1
281
     1
  3
ACAD_XREC_ROUNDTRIP
360
248
  0
DICTIONARY
  5
237
330
37
100
AcDbDictionary
280
     1
281
     1
  3
ACAD_XREC_ROUNDTRIP
360
238
  0
DICTIONARY
  5
229
330
30
100
AcDbDictionary
280
     1
281
     1
  3
ACAD_XREC_ROUNDTRIP
360
22A
  0
DICTIONARY
  5
249
330
40
100
AcDbDictionary
280
     1
281
     1
  3
ACAD_XREC_ROUNDTRIP
360
24A
  0
XRECORD
  5
252
102
{ACAD_REACTORS
330
251
102
}
330
251
100
AcDbXrecord
280
     1
102
MATERIAL
148
0.0
149
0.0
149
0.0
 93
        0
 94
      127
282
     0
 72
     1
 77
     1
171
     1
175
     1
179
     1
273
     0
  0
XRECORD
  5
250
102
{ACAD_REACTORS
330
24F
102
}
330
24F
100
AcDbXrecord
280
     1
102
MATERIAL
148
0.0
149
0.0
149
0.0
 93
        0
 94
      127
282
     0
 72
     1
 77
     1
171
     1
175
     1
179
     1
273
     0
  0
XRECORD
  5
254
102
{ACAD_REACTORS
330
253
102
}
330
253
100
AcDbXrecord
280
     1
102
MATERIAL
148
0.0
149
0.0
149
0.0
 93
        0
 94
      127
282
     0
 72
     1
 77
     1
171
     1
175
     1
179
     1
273
     0
  0
XRECORD
  5
228
102
{ACAD_REACTORS
330
227
102
}
330
227
100
AcDbXrecord
280
     1
102
RTVSPropertyOp0
 70
     1
102
RTVSPropertyOp1
 70
     1
102
RTVSPropertyOp2
 70
     1
102
RTVSPropertyOp3
 70
     1
102
RTVSPropertyOp4
 70
     1
102
RTVSPropertyOp5
 70
     1
102
RTVSPropertyOp6
 70
     1
102
RTVSPropertyOp7
 70
     1
102
RTVSPropertyOp8
 70
     1
102
RTVSPropertyOp9
 70
     1
102
RTVSPropertyOp10
 70
     1
102
RTVSPropertyOp11
 70
     1
102
RTVSPropertyOp12
 70
     1
102
RTVSPropertyOp13
 70
     1
102
RTVSPropertyOp14
 70
     1
102
RTVSPropertyOp15
 70
     1
102
RTVSPropertyOp16
 70
     1
102
RTVSPropertyOp17
 70
     1
102
RTVSPropertyOp18
 70
     1
102
RTVSPropertyOp19
 70
     1
102
RTVSPropertyOp20
 70
     1
102
RTVSPropertyOp21
 70
     1
102
RTVSPropertyOp22
 70
     1
102
RTVSPropertyOp23
 70
     1
102
RTVSPropertyOp24
 70
     1
102
RTVSPropertyOp25
 70
     1
102
RTVSPropertyOp26
 70
     1
102
RTVSPropertyOp27
 70
     1
102
RTVSPropertyOp28
 70
     1
102
RTVSPropertyOp29
 70
     1
102
RTVSPropertyOp30
 70
     1
102
RTVSPropertyOp31
 70
     1
102
RTVSPropertyOp32
 70
     1
102
RTVSPropertyOp33
 70
     1
102
RTVSPropertyOp34
 70
     1
102
RTVSPropertyOp35
 70
     1
102
RTVSPropertyOp36
 70
     1
102
RTVSPropertyOp37
 70
     1
102
RTVSPropertyOp38
 70
     1
102
RTVSPropertyOp39
 70
     1
102
RTVSPropertyOp40
 70
     1
102
RTVSPropertyOp41
 70
     1
102
RTVSPropertyOp42
 70
     1
102
RTVSPropertyOp43
 70
     1
102
RTVSPropertyOp44
 70
     1
102
RTVSPropertyOp45
 70
     1
102
RTVSPropertyOp46
 70
     1
102
RTVSPropertyOp47
 70
     1
102
RTVSPropertyOp48
 70
     1
102
RTVSPropertyOp49
 70
     1
102
RTVSPropertyOp50
 70
     1
102
RTVSPropertyOp51
 70
     0
102
RTVSPropertyOp52
 70
     0
102
RTVSPropertyOp53
 70
     1
102
RTVSPropertyOp54
 70
     1
102
RTVSPropertyOp55
 70
     1
102
RTVSPropertyOp56
 70
     1
102
RTVSPropertyOp57
 70
     1
102
RTVSPost2010Prop28
280
     1
102
RTVSPost2010PropOp28
 70
     1
102
RTVSPost2010Prop29
280
     1
102
RTVSPost2010PropOp29
 70
     1
102
RTVSPost2010Prop30
280
     0
102
RTVSPost2010PropOp30
 70
     1
102
RTVSPost2010Prop31
280
     0
102
RTVSPost2010PropOp31
 70
     1
102
RTVSPost2010Prop32
280
     0
102
RTVSPost2010PropOp32
 70
     1
102
RTVSPost2010Prop33
280
     0
102
RTVSPost2010PropOp33
 70
     1
102
RTVSPost2010Prop34
280
     0
102
RTVSPost2010PropOp34
 70
     1
102
RTVSPost2010Prop35
280
     0
102
RTVSPost2010PropOp35
 70
     1
102
RTVSPost2010Prop36
280
     0
102
RTVSPost2010PropOp36
 70
     1
102
RTVSPost2010Prop37
 90
       50
102
RTVSPost2010PropOp37
 70
     1
102
RTVSPost2010Prop38
140
0.0
102
RTVSPost2010PropOp38
 70
     1
102
RTVSPost2010Prop39
140
1.0
102
RTVSPost2010PropOp39
 70
     1
102
RTVSPost2010Prop40
 90
        0
102
RTVSPost2010PropOp40
 70
     1
102
RTVSPost2010Prop41ColorIndex
 90
       18
102
RTVSPost2010Prop41ColorRGB
 90
        0
102
RTVSPost2010PropOp41
 70
     1
102
RTVSPost2010Prop42
 90
       50
102
RTVSPost2010PropOp42
 70
     1
102
RTVSPost2010Prop43
 90
        3
102
RTVSPost2010PropOp43
 70
     1
102
RTVSPost2010Prop44ColorIndex
 90
        5
102
RTVSPost2010Prop44ColorRGB
 90
      255
102
RTVSPost2010PropOp44
 70
     1
102
RTVSPost2010Prop45
280
     0
102
RTVSPost2010PropOp45
 70
     1
102
RTVSPost2010Prop46
 90
       50
102
RTVSPost2010PropOp46
 70
     1
102
RTVSPost2010Prop47
 90
       50
102
RTVSPost2010PropOp47
 70
     1
102
RTVSPost2010Prop48
 90
       50
102
RTVSPost2010PropOp48
 70
     1
102
RTVSPost2010Prop49
280
     0
102
RTVSPost2010PropOp49
 70
     1
102
RTVSPost2010Prop50
 90
       50
102
RTVSPost2010PropOp50
 70
     1
102
RTVSPost2010Prop51ColorIndex
 90
      256
102
RTVSPost2010Prop51ColorRGB
 90
-16777216
102
RTVSPost2010PropOp51
 70
     0
102
RTVSPost2010Prop52
140
1.0
102
RTVSPost2010PropOp52
 70
     0
102
RTVSPost2010Prop53
 90
        2
102
RTVSPost2010PropOp53
 70
     1
102
RTVSPost2010Prop54
  1
strokes_ogs.tif
102
RTVSPost2010PropOp54
 70
     1
102
RTVSPost2010Prop55
280
     0
102
RTVSPost2010PropOp55
 70
     1
102
RTVSPost2010Prop56
140
1.0
102
RTVSPost2010PropOp56
 70
     1
102
RTVSPost2010Prop57
140
1.0
102
RTVSPost2010PropOp57
 70
     1
  0
XRECORD
  5
22E
102
{ACAD_REACTORS
330
22D
102
}
330
22D
100
AcDbXrecord
280
     1
102
RTVSPropertyOp0
 70
     1
102
RTVSPropertyOp1
 70
     1
102
RTVSPropertyOp2
 70
     1
102
RTVSPropertyOp3
 70
     1
102
RTVSPropertyOp4
 70
     1
102
RTVSPropertyOp5
 70
     1
102
RTVSPropertyOp6
 70
     1
102
RTVSPropertyOp7
 70
     1
102
RTVSPropertyOp8
 70
     1
102
RTVSPropertyOp9
 70
     1
102
RTVSPropertyOp10
 70
     1
102
RTVSPropertyOp11
 70
     1
102
RTVSPropertyOp12
 70
     1
102
RTVSPropertyOp13
 70
     1
102
RTVSPropertyOp14
 70
     1
102
RTVSPropertyOp15
 70
     1
102
RTVSPropertyOp16
 70
     1
102
RTVSPropertyOp17
 70
     1
102
RTVSPropertyOp18
 70
     1
102
RTVSPropertyOp19
 70
     1
102
RTVSPropertyOp20
 70
     1
102
RTVSPropertyOp21
 70
     1
102
RTVSPropertyOp22
 70
     1
102
RTVSPropertyOp23
 70
     1
102
RTVSPropertyOp24
 70
     1
102
RTVSPropertyOp25
 70
     1
102
RTVSPropertyOp26
 70
     1
102
RTVSPropertyOp27
 70
     1
102
RTVSPropertyOp28
 70
     1
102
RTVSPropertyOp29
 70
     1
102
RTVSPropertyOp30
 70
     1
102
RTVSPropertyOp31
 70
     1
102
RTVSPropertyOp32
 70
     1
102
RTVSPropertyOp33
 70
     1
102
RTVSPropertyOp34
 70
     1
102
RTVSPropertyOp35
 70
     1
102
RTVSPropertyOp36
 70
     1
102
RTVSPropertyOp37
 70
     1
102
RTVSPropertyOp38
 70
     1
102
RTVSPropertyOp39
 70
     1
102
RTVSPropertyOp40
 70
     1
102
RTVSPropertyOp41
 70
     1
102
RTVSPropertyOp42
 70
     1
102
RTVSPropertyOp43
 70
     1
102
RTVSPropertyOp44
 70
     1
102
RTVSPropertyOp45
 70
     1
102
RTVSPropertyOp46
 70
     1
102
RTVSPropertyOp47
 70
     1
102
RTVSPropertyOp48
 70
     1
102
RTVSPropertyOp49
 70
     1
102
RTVSPropertyOp50
 70
     1
102
RTVSPropertyOp51
 70
     0
102
RTVSPropertyOp52
 70
     0
102
RTVSPropertyOp53
 70
     1
102
RTVSPropertyOp54
 70
     1
102
RTVSPropertyOp55
 70
     1
102
RTVSPropertyOp56
 70
     1
102
RTVSPropertyOp57
 70
     1
102
RTVSPost2010Prop28
280
     0
102
RTVSPost2010PropOp28
 70
     1
102
RTVSPost2010Prop29
280
     1
102
RTVSPost2010PropOp29
 70
     1
102
RTVSPost2010Prop30
280
     1
102
RTVSPost2010PropOp30
 70
     1
102
RTVSPost2010Prop31
280
     0
102
RTVSPost2010PropOp31
 70
     1
102
RTVSPost2010Prop32
280
     0
102
RTVSPost2010PropOp32
 70
     1
102
RTVSPost2010Prop33
280
     0
102
RTVSPost2010PropOp33
 70
     1
102
RTVSPost2010Prop34
280
     0
102
RTVSPost2010PropOp34
 70
     1
102
RTVSPost2010Prop35
280
     0
102
RTVSPost2010PropOp35
 70
     1
102
RTVSPost2010Prop36
280
     0
102
RTVSPost2010PropOp36
 70
     1
102
RTVSPost2010Prop37
 90
       50
102
RTVSPost2010PropOp37
 70
     1
102
RTVSPost2010Prop38
140
0.0
102
RTVSPost2010PropOp38
 70
     1
102
RTVSPost2010Prop39
140
1.0
102
RTVSPost2010PropOp39
 70
     1
102
RTVSPost2010Prop40
 90
        0
102
RTVSPost2010PropOp40
 70
     1
102
RTVSPost2010Prop41ColorIndex
 90
       18
102
RTVSPost2010Prop41ColorRGB
 90
        0
102
RTVSPost2010PropOp41
 70
     1
102
RTVSPost2010Prop42
 90
       50
102
RTVSPost2010PropOp42
 70
     1
102
RTVSPost2010Prop43
 90
        3
102
RTVSPost2010PropOp43
 70
     1
102
RTVSPost2010Prop44ColorIndex
 90
        5
102
RTVSPost2010Prop44ColorRGB
 90
      255
102
RTVSPost2010PropOp44
 70
     1
102
RTVSPost2010Prop45
280
     0
102
RTVSPost2010PropOp45
 70
     1
102
RTVSPost2010Prop46
 90
       50
102
RTVSPost2010PropOp46
 70
     1
102
RTVSPost2010Prop47
 90
       50
102
RTVSPost2010PropOp47
 70
     1
102
RTVSPost2010Prop48
 90
       50
102
RTVSPost2010PropOp48
 70
     1
102
RTVSPost2010Prop49
280
     0
102
RTVSPost2010PropOp49
 70
     1
102
RTVSPost2010Prop50
 90
       50
102
RTVSPost2010PropOp50
 70
     1
102
RTVSPost2010Prop51ColorIndex
 90
      256
102
RTVSPost2010Prop51ColorRGB
 90
-16777216
102
RTVSPost2010PropOp51
 70
     0
102
RTVSPost2010Prop52
140
1.0
102
RTVSPost2010PropOp52
 70
     0
102
RTVSPost2010Prop53
 90
        2
102
RTVSPost2010PropOp53
 70
     1
102
RTVSPost2010Prop54
  1
strokes_ogs.tif
102
RTVSPost2010PropOp54
 70
     1
102
RTVSPost2010Prop55
280
     0
102
RTVSPost2010PropOp55
 70
     1
102
RTVSPost2010Prop56
140
1.0
102
RTVSPost2010PropOp56
 70
     1
102
RTVSPost2010Prop57
140
1.0
102
RTVSPost2010PropOp57
 70
     1
  0
XRECORD
  5
236
102
{ACAD_REACTORS
330
235
102
}
330
235
100
AcDbXrecord
280
     1
102
RTVSPropertyOp0
 70
     1
102
RTVSPropertyOp1
 70
     1
102
RTVSPropertyOp2
 70
     1
102
RTVSPropertyOp3
 70
     1
102
RTVSPropertyOp4
 70
     1
102
RTVSPropertyOp5
 70
     1
102
RTVSPropertyOp6
 70
     1
102
RTVSPropertyOp7
 70
     1
102
RTVSPropertyOp8
 70
     1
102
RTVSPropertyOp9
 70
     1
102
RTVSPropertyOp10
 70
     1
102
RTVSPropertyOp11
 70
     1
102
RTVSPropertyOp12
 70
     1
102
RTVSPropertyOp13
 70
     1
102
RTVSPropertyOp14
 70
     1
102
RTVSPropertyOp15
 70
     1
102
RTVSPropertyOp16
 70
     1
102
RTVSPropertyOp17
 70
     1
102
RTVSPropertyOp18
 70
     1
102
RTVSPropertyOp19
 70
     1
102
RTVSPropertyOp20
 70
     1
102
RTVSPropertyOp21
 70
     1
102
RTVSPropertyOp22
 70
     1
102
RTVSPropertyOp23
 70
     1
102
RTVSPropertyOp24
 70
     1
102
RTVSPropertyOp25
 70
     1
102
RTVSPropertyOp26
 70
     1
102
RTVSPropertyOp27
 70
     1
102
RTVSPropertyOp28
 70
     1
102
RTVSPropertyOp29
 70
     1
102
RTVSPropertyOp30
 70
     1
102
RTVSPropertyOp31
 70
     1
102
RTVSPropertyOp32
 70
     1
102
RTVSPropertyOp33
 70
     1
102
RTVSPropertyOp34
 70
     1
102
RTVSPropertyOp35
 70
     1
102
RTVSPropertyOp36
 70
     1
102
RTVSPropertyOp37
 70
     1
102
RTVSPropertyOp38
 70
     1
102
RTVSPropertyOp39
 70
     1
102
RTVSPropertyOp40
 70
     1
102
RTVSPropertyOp41
 70
     1
102
RTVSPropertyOp42
 70
     1
102
RTVSPropertyOp43
 70
     1
102
RTVSPropertyOp44
 70
     1
102
RTVSPropertyOp45
 70
     1
102
RTVSPropertyOp46
 70
     1
102
RTVSPropertyOp47
 70
     1
102
RTVSPropertyOp48
 70
     1
102
RTVSPropertyOp49
 70
     1
102
RTVSPropertyOp50
 70
     1
102
RTVSPropertyOp51
 70
     0
102
RTVSPropertyOp52
 70
     0
102
RTVSPropertyOp53
 70
     1
102
RTVSPropertyOp54
 70
     1
102
RTVSPropertyOp55
 70
     1
102
RTVSPropertyOp56
 70
     1
102
RTVSPropertyOp57
 70
     1
102
RTVSPost2010Prop28
280
     0
102
RTVSPost2010PropOp28
 70
     1
102
RTVSPost2010Prop29
280
     1
102
RTVSPost2010PropOp29
 70
     1
102
RTVSPost2010Prop30
280
     1
102
RTVSPost2010PropOp30
 70
     1
102
RTVSPost2010Prop31
280
     0
102
RTVSPost2010PropOp31
 70
     1
102
RTVSPost2010Prop32
280
     0
102
RTVSPost2010PropOp32
 70
     1
102
RTVSPost2010Prop33
280
     0
102
RTVSPost2010PropOp33
 70
     1
102
RTVSPost2010Prop34
280
     0
102
RTVSPost2010PropOp34
 70
     1
102
RTVSPost2010Prop35
280
     0
102
RTVSPost2010PropOp35
 70
     1
102
RTVSPost2010Prop36
280
     0
102
RTVSPost2010PropOp36
 70
     1
102
RTVSPost2010Prop37
 90
       50
102
RTVSPost2010PropOp37
 70
     1
102
RTVSPost2010Prop38
140
0.0
102
RTVSPost2010PropOp38
 70
     1
102
RTVSPost2010Prop39
140
1.0
102
RTVSPost2010PropOp39
 70
     1
102
RTVSPost2010Prop40
 90
        0
102
RTVSPost2010PropOp40
 70
     1
102
RTVSPost2010Prop41ColorIndex
 90
       18
102
RTVSPost2010Prop41ColorRGB
 90
        0
102
RTVSPost2010PropOp41
 70
     1
102
RTVSPost2010Prop42
 90
       50
102
RTVSPost2010PropOp42
 70
     1
102
RTVSPost2010Prop43
 90
        3
102
RTVSPost2010PropOp43
 70
     1
102
RTVSPost2010Prop44ColorIndex
 90
        5
102
RTVSPost2010Prop44ColorRGB
 90
      255
102
RTVSPost2010PropOp44
 70
     1
102
RTVSPost2010Prop45
280
     0
102
RTVSPost2010PropOp45
 70
     1
102
RTVSPost2010Prop46
 90
       50
102
RTVSPost2010PropOp46
 70
     1
102
RTVSPost2010Prop47
 90
       50
102
RTVSPost2010PropOp47
 70
     1
102
RTVSPost2010Prop48
 90
       50
102
RTVSPost2010PropOp48
 70
     1
102
RTVSPost2010Prop49
280
     0
102
RTVSPost2010PropOp49
 70
     1
102
RTVSPost2010Prop50
 90
       50
102
RTVSPost2010PropOp50
 70
     1
102
RTVSPost2010Prop51ColorIndex
 90
      256
102
RTVSPost2010Prop51ColorRGB
 90
-16777216
102
RTVSPost2010PropOp51
 70
     0
102
RTVSPost2010Prop52
140
1.0
102
RTVSPost2010PropOp52
 70
     0
102
RTVSPost2010Prop53
 90
        2
102
RTVSPost2010PropOp53
 70
     1
102
RTVSPost2010Prop54
  1
strokes_ogs.tif
102
RTVSPost2010PropOp54
 70
     1
102
RTVSPost2010Prop55
280
     0
102
RTVSPost2010PropOp55
 70
     1
102
RTVSPost2010Prop56
140
1.0
102
RTVSPost2010PropOp56
 70
     1
102
RTVSPost2010Prop57
140
1.0
102
RTVSPost2010PropOp57
 70
     1
  0
XRECORD
  5
23E
102
{ACAD_REACTORS
330
23D
102
}
330
23D
100
AcDbXrecord
280
     1
102
RTVSPropertyOp0
 70
     1
102
RTVSPropertyOp1
 70
     1
102
RTVSPropertyOp2
 70
     1
102
RTVSPropertyOp3
 70
     1
102
RTVSPropertyOp4
 70
     1
102
RTVSPropertyOp5
 70
     1
102
RTVSPropertyOp6
 70
     1
102
RTVSPropertyOp7
 70
     1
102
RTVSPropertyOp8
 70
     1
102
RTVSPropertyOp9
 70
     1
102
RTVSPropertyOp10
 70
     1
102
RTVSPropertyOp11
 70
     1
102
RTVSPropertyOp12
 70
     1
102
RTVSPropertyOp13
 70
     1
102
RTVSPropertyOp14
 70
     1
102
RTVSPropertyOp15
 70
     1
102
RTVSPropertyOp16
 70
     1
102
RTVSPropertyOp17
 70
     1
102
RTVSPropertyOp18
 70
     1
102
RTVSPropertyOp19
 70
     1
102
RTVSPropertyOp20
 70
     1
102
RTVSPropertyOp21
 70
     1
102
RTVSPropertyOp22
 70
     1
102
RTVSPropertyOp23
 70
     1
102
RTVSPropertyOp24
 70
     1
102
RTVSPropertyOp25
 70
     1
102
RTVSPropertyOp26
 70
     1
102
RTVSPropertyOp27
 70
     1
102
RTVSPropertyOp28
 70
     1
102
RTVSPropertyOp29
 70
     1
102
RTVSPropertyOp30
 70
     1
102
RTVSPropertyOp31
 70
     1
102
RTVSPropertyOp32
 70
     1
102
RTVSPropertyOp33
 70
     1
102
RTVSPropertyOp34
 70
     1
102
RTVSPropertyOp35
 70
     1
102
RTVSPropertyOp36
 70
     1
102
RTVSPropertyOp37
 70
     1
102
RTVSPropertyOp38
 70
     1
102
RTVSPropertyOp39
 70
     1
102
RTVSPropertyOp40
 70
     1
102
RTVSPropertyOp41
 70
     1
102
RTVSPropertyOp42
 70
     1
102
RTVSPropertyOp43
 70
     1
102
RTVSPropertyOp44
 70
     1
102
RTVSPropertyOp45
 70
     1
102
RTVSPropertyOp46
 70
     1
102
RTVSPropertyOp47
 70
     1
102
RTVSPropertyOp48
 70
     1
102
RTVSPropertyOp49
 70
     1
102
RTVSPropertyOp50
 70
     1
102
RTVSPropertyOp51
 70
     0
102
RTVSPropertyOp52
 70
     0
102
RTVSPropertyOp53
 70
     1
102
RTVSPropertyOp54
 70
     1
102
RTVSPropertyOp55
 70
     1
102
RTVSPropertyOp56
 70
     1
102
RTVSPropertyOp57
 70
     1
102
RTVSPost2010Prop28
280
     0
102
RTVSPost2010PropOp28
 70
     1
102
RTVSPost2010Prop29
280
     1
102
RTVSPost2010PropOp29
 70
     1
102
RTVSPost2010Prop30
280
     1
102
RTVSPost2010PropOp30
 70
     1
102
RTVSPost2010Prop31
280
     0
102
RTVSPost2010PropOp31
 70
     1
102
RTVSPost2010Prop32
280
     0
102
RTVSPost2010PropOp32
 70
     1
102
RTVSPost2010Prop33
280
     0
102
RTVSPost2010PropOp33
 70
     1
102
RTVSPost2010Prop34
280
     0
102
RTVSPost2010PropOp34
 70
     1
102
RTVSPost2010Prop35
280
     0
102
RTVSPost2010PropOp35
 70
     1
102
RTVSPost2010Prop36
280
     0
102
RTVSPost2010PropOp36
 70
     1
102
RTVSPost2010Prop37
 90
       50
102
RTVSPost2010PropOp37
 70
     1
102
RTVSPost2010Prop38
140
0.0
102
RTVSPost2010PropOp38
 70
     1
102
RTVSPost2010Prop39
140
1.0
102
RTVSPost2010PropOp39
 70
     1
102
RTVSPost2010Prop40
 90
        0
102
RTVSPost2010PropOp40
 70
     1
102
RTVSPost2010Prop41ColorIndex
 90
       18
102
RTVSPost2010Prop41ColorRGB
 90
        0
102
RTVSPost2010PropOp41
 70
     1
102
RTVSPost2010Prop42
 90
       50
102
RTVSPost2010PropOp42
 70
     1
102
RTVSPost2010Prop43
 90
        3
102
RTVSPost2010PropOp43
 70
     1
102
RTVSPost2010Prop44ColorIndex
 90
        5
102
RTVSPost2010Prop44ColorRGB
 90
      255
102
RTVSPost2010PropOp44
 70
     1
102
RTVSPost2010Prop45
280
     0
102
RTVSPost2010PropOp45
 70
     1
102
RTVSPost2010Prop46
 90
       50
102
RTVSPost2010PropOp46
 70
     1
102
RTVSPost2010Prop47
 90
       50
102
RTVSPost2010PropOp47
 70
     1
102
RTVSPost2010Prop48
 90
       50
102
RTVSPost2010PropOp48
 70
     1
102
RTVSPost2010Prop49
280
     0
102
RTVSPost2010PropOp49
 70
     1
102
RTVSPost2010Prop50
 90
       50
102
RTVSPost2010PropOp50
 70
     1
102
RTVSPost2010Prop51ColorIndex
 90
      256
102
RTVSPost2010Prop51ColorRGB
 90
-16777216
102
RTVSPost2010PropOp51
 70
     0
102
RTVSPost2010Prop52
140
1.0
102
RTVSPost2010PropOp52
 70
     0
102
RTVSPost2010Prop53
 90
        2
102
RTVSPost2010PropOp53
 70
     1
102
RTVSPost2010Prop54
  1
strokes_ogs.tif
102
RTVSPost2010PropOp54
 70
     1
102
RTVSPost2010Prop55
280
     0
102
RTVSPost2010PropOp55
 70
     1
102
RTVSPost2010Prop56
140
1.0
102
RTVSPost2010PropOp56
 70
     1
102
RTVSPost2010Prop57
140
1.0
102
RTVSPost2010PropOp57
 70
     1
  0
XRECORD
  5
232
102
{ACAD_REACTORS
330
231
102
}
330
231
100
AcDbXrecord
280
     1
102
RTVSPropertyOp0
 70
     1
102
RTVSPropertyOp1
 70
     1
102
RTVSPropertyOp2
 70
     1
102
RTVSPropertyOp3
 70
     1
102
RTVSPropertyOp4
 70
     1
102
RTVSPropertyOp5
 70
     1
102
RTVSPropertyOp6
 70
     1
102
RTVSPropertyOp7
 70
     1
102
RTVSPropertyOp8
 70
     1
102
RTVSPropertyOp9
 70
     1
102
RTVSPropertyOp10
 70
     1
102
RTVSPropertyOp11
 70
     1
102
RTVSPropertyOp12
 70
     1
102
RTVSPropertyOp13
 70
     1
102
RTVSPropertyOp14
 70
     1
102
RTVSPropertyOp15
 70
     1
102
RTVSPropertyOp16
 70
     1
102
RTVSPropertyOp17
 70
     1
102
RTVSPropertyOp18
 70
     1
102
RTVSPropertyOp19
 70
     1
102
RTVSPropertyOp20
 70
     1
102
RTVSPropertyOp21
 70
     1
102
RTVSPropertyOp22
 70
     1
102
RTVSPropertyOp23
 70
     1
102
RTVSPropertyOp24
 70
     1
102
RTVSPropertyOp25
 70
     1
102
RTVSPropertyOp26
 70
     1
102
RTVSPropertyOp27
 70
     1
102
RTVSPropertyOp28
 70
     1
102
RTVSPropertyOp29
 70
     1
102
RTVSPropertyOp30
 70
     1
102
RTVSPropertyOp31
 70
     1
102
RTVSPropertyOp32
 70
     1
102
RTVSPropertyOp33
 70
     1
102
RTVSPropertyOp34
 70
     1
102
RTVSPropertyOp35
 70
     1
102
RTVSPropertyOp36
 70
     1
102
RTVSPropertyOp37
 70
     1
102
RTVSPropertyOp38
 70
     1
102
RTVSPropertyOp39
 70
     1
102
RTVSPropertyOp40
 70
     1
102
RTVSPropertyOp41
 70
     1
102
RTVSPropertyOp42
 70
     1
102
RTVSPropertyOp43
 70
     1
102
RTVSPropertyOp44
 70
     1
102
RTVSPropertyOp45
 70
     1
102
RTVSPropertyOp46
 70
     1
102
RTVSPropertyOp47
 70
     1
102
RTVSPropertyOp48
 70
     1
102
RTVSPropertyOp49
 70
     1
102
RTVSPropertyOp50
 70
     1
102
RTVSPropertyOp51
 70
     0
102
RTVSPropertyOp52
 70
     0
102
RTVSPropertyOp53
 70
     1
102
RTVSPropertyOp54
 70
     1
102
RTVSPropertyOp55
 70
     1
102
RTVSPropertyOp56
 70
     1
102
RTVSPropertyOp57
 70
     1
102
RTVSPost2010Prop28
280
     0
102
RTVSPost2010PropOp28
 70
     1
102
RTVSPost2010Prop29
280
     1
102
RTVSPost2010PropOp29
 70
     1
102
RTVSPost2010Prop30
280
     1
102
RTVSPost2010PropOp30
 70
     1
102
RTVSPost2010Prop31
280
     0
102
RTVSPost2010PropOp31
 70
     1
102
RTVSPost2010Prop32
280
     0
102
RTVSPost2010PropOp32
 70
     1
102
RTVSPost2010Prop33
280
     0
102
RTVSPost2010PropOp33
 70
     1
102
RTVSPost2010Prop34
280
     0
102
RTVSPost2010PropOp34
 70
     1
102
RTVSPost2010Prop35
280
     0
102
RTVSPost2010PropOp35
 70
     1
102
RTVSPost2010Prop36
280
     0
102
RTVSPost2010PropOp36
 70
     1
102
RTVSPost2010Prop37
 90
       50
102
RTVSPost2010PropOp37
 70
     1
102
RTVSPost2010Prop38
140
0.0
102
RTVSPost2010PropOp38
 70
     1
102
RTVSPost2010Prop39
140
1.0
102
RTVSPost2010PropOp39
 70
     1
102
RTVSPost2010Prop40
 90
        0
102
RTVSPost2010PropOp40
 70
     1
102
RTVSPost2010Prop41ColorIndex
 90
       18
102
RTVSPost2010Prop41ColorRGB
 90
        0
102
RTVSPost2010PropOp41
 70
     1
102
RTVSPost2010Prop42
 90
       50
102
RTVSPost2010PropOp42
 70
     1
102
RTVSPost2010Prop43
 90
        3
102
RTVSPost2010PropOp43
 70
     1
102
RTVSPost2010Prop44ColorIndex
 90
        5
102
RTVSPost2010Prop44ColorRGB
 90
      255
102
RTVSPost2010PropOp44
 70
     1
102
RTVSPost2010Prop45
280
     0
102
RTVSPost2010PropOp45
 70
     1
102
RTVSPost2010Prop46
 90
       50
102
RTVSPost2010PropOp46
 70
     1
102
RTVSPost2010Prop47
 90
       50
102
RTVSPost2010PropOp47
 70
     1
102
RTVSPost2010Prop48
 90
       50
102
RTVSPost2010PropOp48
 70
     1
102
RTVSPost2010Prop49
280
     0
102
RTVSPost2010PropOp49
 70
     1
102
RTVSPost2010Prop50
 90
       50
102
RTVSPost2010PropOp50
 70
     1
102
RTVSPost2010Prop51ColorIndex
 90
      256
102
RTVSPost2010Prop51ColorRGB
 90
-16777216
102
RTVSPost2010PropOp51
 70
     0
102
RTVSPost2010Prop52
140
1.0
102
RTVSPost2010PropOp52
 70
     0
102
RTVSPost2010Prop53
 90
        2
102
RTVSPost2010PropOp53
 70
     1
102
RTVSPost2010Prop54
  1
strokes_ogs.tif
102
RTVSPost2010PropOp54
 70
     1
102
RTVSPost2010Prop55
280
     0
102
RTVSPost2010PropOp55
 70
     1
102
RTVSPost2010Prop56
140
1.0
102
RTVSPost2010PropOp56
 70
     1
102
RTVSPost2010Prop57
140
1.0
102
RTVSPost2010PropOp57
 70
     1
  0
XRECORD
  5
234
102
{ACAD_REACTORS
330
233
102
}
330
233
100
AcDbXrecord
280
     1
102
RTVSPropertyOp0
 70
     1
102
RTVSPropertyOp1
 70
     1
102
RTVSPropertyOp2
 70
     1
102
RTVSPropertyOp3
 70
     1
102
RTVSPropertyOp4
 70
     1
102
RTVSPropertyOp5
 70
     1
102
RTVSPropertyOp6
 70
     1
102
RTVSPropertyOp7
 70
     1
102
RTVSPropertyOp8
 70
     1
102
RTVSPropertyOp9
 70
     1
102
RTVSPropertyOp10
 70
     1
102
RTVSPropertyOp11
 70
     1
102
RTVSPropertyOp12
 70
     1
102
RTVSPropertyOp13
 70
     1
102
RTVSPropertyOp14
 70
     1
102
RTVSPropertyOp15
 70
     1
102
RTVSPropertyOp16
 70
     1
102
RTVSPropertyOp17
 70
     1
102
RTVSPropertyOp18
 70
     1
102
RTVSPropertyOp19
 70
     1
102
RTVSPropertyOp20
 70
     1
102
RTVSPropertyOp21
 70
     1
102
RTVSPropertyOp22
 70
     1
102
RTVSPropertyOp23
 70
     1
102
RTVSPropertyOp24
 70
     1
102
RTVSPropertyOp25
 70
     1
102
RTVSPropertyOp26
 70
     1
102
RTVSPropertyOp27
 70
     1
102
RTVSPropertyOp28
 70
     1
102
RTVSPropertyOp29
 70
     1
102
RTVSPropertyOp30
 70
     1
102
RTVSPropertyOp31
 70
     1
102
RTVSPropertyOp32
 70
     1
102
RTVSPropertyOp33
 70
     1
102
RTVSPropertyOp34
 70
     1
102
RTVSPropertyOp35
 70
     1
102
RTVSPropertyOp36
 70
     1
102
RTVSPropertyOp37
 70
     1
102
RTVSPropertyOp38
 70
     1
102
RTVSPropertyOp39
 70
     1
102
RTVSPropertyOp40
 70
     1
102
RTVSPropertyOp41
 70
     1
102
RTVSPropertyOp42
 70
     1
102
RTVSPropertyOp43
 70
     1
102
RTVSPropertyOp44
 70
     1
102
RTVSPropertyOp45
 70
     1
102
RTVSPropertyOp46
 70
     1
102
RTVSPropertyOp47
 70
     1
102
RTVSPropertyOp48
 70
     1
102
RTVSPropertyOp49
 70
     1
102
RTVSPropertyOp50
 70
     1
102
RTVSPropertyOp51
 70
     0
102
RTVSPropertyOp52
 70
     0
102
RTVSPropertyOp53
 70
     1
102
RTVSPropertyOp54
 70
     1
102
RTVSPropertyOp55
 70
     1
102
RTVSPropertyOp56
 70
     1
102
RTVSPropertyOp57
 70
     1
102
RTVSPost2010Prop28
280
     0
102
RTVSPost2010PropOp28
 70
     1
102
RTVSPost2010Prop29
280
     1
102
RTVSPost2010PropOp29
 70
     1
102
RTVSPost2010Prop30
280
     1
102
RTVSPost2010PropOp30
 70
     1
102
RTVSPost2010Prop31
280
     0
102
RTVSPost2010PropOp31
 70
     1
102
RTVSPost2010Prop32
280
     0
102
RTVSPost2010PropOp32
 70
     1
102
RTVSPost2010Prop33
280
     0
102
RTVSPost2010PropOp33
 70
     1
102
RTVSPost2010Prop34
280
     0
102
RTVSPost2010PropOp34
 70
     1
102
RTVSPost2010Prop35
280
     0
102
RTVSPost2010PropOp35
 70
     1
102
RTVSPost2010Prop36
280
     0
102
RTVSPost2010PropOp36
 70
     1
102
RTVSPost2010Prop37
 90
       50
102
RTVSPost2010PropOp37
 70
     1
102
RTVSPost2010Prop38
140
0.0
102
RTVSPost2010PropOp38
 70
     1
102
RTVSPost2010Prop39
140
1.0
102
RTVSPost2010PropOp39
 70
     1
102
RTVSPost2010Prop40
 90
        0
102
RTVSPost2010PropOp40
 70
     1
102
RTVSPost2010Prop41ColorIndex
 90
       18
102
RTVSPost2010Prop41ColorRGB
 90
        0
102
RTVSPost2010PropOp41
 70
     1
102
RTVSPost2010Prop42
 90
       50
102
RTVSPost2010PropOp42
 70
     1
102
RTVSPost2010Prop43
 90
        3
102
RTVSPost2010PropOp43
 70
     1
102
RTVSPost2010Prop44ColorIndex
 90
        5
102
RTVSPost2010Prop44ColorRGB
 90
      255
102
RTVSPost2010PropOp44
 70
     1
102
RTVSPost2010Prop45
280
     0
102
RTVSPost2010PropOp45
 70
     1
102
RTVSPost2010Prop46
 90
       50
102
RTVSPost2010PropOp46
 70
     1
102
RTVSPost2010Prop47
 90
       50
102
RTVSPost2010PropOp47
 70
     1
102
RTVSPost2010Prop48
 90
       50
102
RTVSPost2010PropOp48
 70
     1
102
RTVSPost2010Prop49
280
     0
102
RTVSPost2010PropOp49
 70
     1
102
RTVSPost2010Prop50
 90
       50
102
RTVSPost2010PropOp50
 70
     1
102
RTVSPost2010Prop51ColorIndex
 90
      256
102
RTVSPost2010Prop51ColorRGB
 90
-16777216
102
RTVSPost2010PropOp51
 70
     0
102
RTVSPost2010Prop52
140
1.0
102
RTVSPost2010PropOp52
 70
     0
102
RTVSPost2010Prop53
 90
        2
102
RTVSPost2010PropOp53
 70
     1
102
RTVSPost2010Prop54
  1
strokes_ogs.tif
102
RTVSPost2010PropOp54
 70
     1
102
RTVSPost2010Prop55
280
     0
102
RTVSPost2010PropOp55
 70
     1
102
RTVSPost2010Prop56
140
1.0
102
RTVSPost2010PropOp56
 70
     1
102
RTVSPost2010Prop57
140
1.0
102
RTVSPost2010PropOp57
 70
     1
  0
XRECORD
  5
244
102
{ACAD_REACTORS
330
243
102
}
330
243
100
AcDbXrecord
280
     1
102
RTVSPropertyOp0
 70
     0
102
RTVSPropertyOp1
 70
     0
102
RTVSPropertyOp2
 70
     0
102
RTVSPropertyOp3
 70
     0
102
RTVSPropertyOp4
 70
     0
102
RTVSPropertyOp5
 70
     0
102
RTVSPropertyOp6
 70
     0
102
RTVSPropertyOp7
 70
     0
102
RTVSPropertyOp8
 70
     0
102
RTVSPropertyOp9
 70
     0
102
RTVSPropertyOp10
 70
     0
102
RTVSPropertyOp11
 70
     0
102
RTVSPropertyOp12
 70
     0
102
RTVSPropertyOp13
 70
     0
102
RTVSPropertyOp14
 70
     2
102
RTVSPropertyOp15
 70
     0
102
RTVSPropertyOp16
 70
     0
102
RTVSPropertyOp17
 70
     0
102
RTVSPropertyOp18
 70
     0
102
RTVSPropertyOp19
 70
     0
102
RTVSPropertyOp20
 70
     0
102
RTVSPropertyOp21
 70
     0
102
RTVSPropertyOp22
 70
     0
102
RTVSPropertyOp23
 70
     0
102
RTVSPropertyOp24
 70
     0
102
RTVSPropertyOp25
 70
     0
102
RTVSPropertyOp26
 70
     0
102
RTVSPropertyOp27
 70
     0
102
RTVSPropertyOp28
 70
     0
102
RTVSPropertyOp29
 70
     0
102
RTVSPropertyOp30
 70
     0
102
RTVSPropertyOp31
 70
     0
102
RTVSPropertyOp32
 70
     0
102
RTVSPropertyOp33
 70
     0
102
RTVSPropertyOp34
 70
     0
102
RTVSPropertyOp35
 70
     0
102
RTVSPropertyOp36
 70
     0
102
RTVSPropertyOp37
 70
     0
102
RTVSPropertyOp38
 70
     0
102
RTVSPropertyOp39
 70
     0
102
RTVSPropertyOp40
 70
     0
102
RTVSPropertyOp41
 70
     0
102
RTVSPropertyOp42
 70
     0
102
RTVSPropertyOp43
 70
     0
102
RTVSPropertyOp44
 70
     0
102
RTVSPropertyOp45
 70
     0
102
RTVSPropertyOp46
 70
     0
102
RTVSPropertyOp47
 70
     0
102
RTVSPropertyOp48
 70
     0
102
RTVSPropertyOp49
 70
     0
102
RTVSPropertyOp50
 70
     0
102
RTVSPropertyOp51
 70
     0
102
RTVSPropertyOp52
 70
     0
102
RTVSPropertyOp53
 70
     0
102
RTVSPropertyOp54
 70
     0
102
RTVSPropertyOp55
 70
     0
102
RTVSPropertyOp56
 70
     0
102
RTVSPropertyOp57
 70
     0
102
RTVSPost2010Prop28
280
     0
102
RTVSPost2010PropOp28
 70
     0
102
RTVSPost2010Prop29
280
     1
102
RTVSPost2010PropOp29
 70
     0
102
RTVSPost2010Prop30
280
     1
102
RTVSPost2010PropOp30
 70
     0
102
RTVSPost2010Prop31
280
     0
102
RTVSPost2010PropOp31
 70
     0
102
RTVSPost2010Prop32
280
     0
102
RTVSPost2010PropOp32
 70
     0
102
RTVSPost2010Prop33
280
     0
102
RTVSPost2010PropOp33
 70
     0
102
RTVSPost2010Prop34
280
     0
102
RTVSPost2010PropOp34
 70
     0
102
RTVSPost2010Prop35
280
     0
102
RTVSPost2010PropOp35
 70
     0
102
RTVSPost2010Prop36
280
     0
102
RTVSPost2010PropOp36
 70
     0
102
RTVSPost2010Prop37
 90
       50
102
RTVSPost2010PropOp37
 70
     0
102
RTVSPost2010Prop38
140
0.0
102
RTVSPost2010PropOp38
 70
     0
102
RTVSPost2010Prop39
140
1.0
102
RTVSPost2010PropOp39
 70
     0
102
RTVSPost2010Prop40
 90
        0
102
RTVSPost2010PropOp40
 70
     0
102
RTVSPost2010Prop41ColorIndex
 90
       18
102
RTVSPost2010Prop41ColorRGB
 90
        0
102
RTVSPost2010PropOp41
 70
     0
102
RTVSPost2010Prop42
 90
       50
102
RTVSPost2010PropOp42
 70
     0
102
RTVSPost2010Prop43
 90
        3
102
RTVSPost2010PropOp43
 70
     0
102
RTVSPost2010Prop44ColorIndex
 90
        5
102
RTVSPost2010Prop44ColorRGB
 90
      255
102
RTVSPost2010PropOp44
 70
     0
102
RTVSPost2010Prop45
280
     0
102
RTVSPost2010PropOp45
 70
     0
102
RTVSPost2010Prop46
 90
       50
102
RTVSPost2010PropOp46
 70
     0
102
RTVSPost2010Prop47
 90
       50
102
RTVSPost2010PropOp47
 70
     0
102
RTVSPost2010Prop48
 90
       50
102
RTVSPost2010PropOp48
 70
     0
102
RTVSPost2010Prop49
280
     0
102
RTVSPost2010PropOp49
 70
     0
102
RTVSPost2010Prop50
 90
       50
102
RTVSPost2010PropOp50
 70
     0
102
RTVSPost2010Prop51ColorIndex
 90
      256
102
RTVSPost2010Prop51ColorRGB
 90
-16777216
102
RTVSPost2010PropOp51
 70
     0
102
RTVSPost2010Prop52
140
1.0
102
RTVSPost2010PropOp52
 70
     0
102
RTVSPost2010Prop53
 90
        2
102
RTVSPost2010PropOp53
 70
     0
102
RTVSPost2010Prop54
  1
strokes_ogs.tif
102
RTVSPost2010PropOp54
 70
     0
102
RTVSPost2010Prop55
280
     0
102
RTVSPost2010PropOp55
 70
     0
102
RTVSPost2010Prop56
140
1.0
102
RTVSPost2010PropOp56
 70
     0
102
RTVSPost2010Prop57
140
1.0
102
RTVSPost2010PropOp57
 70
     0
  0
XRECORD
  5
23C
102
{ACAD_REACTORS
330
23B
102
}
330
23B
100
AcDbXrecord
280
     1
102
RTVSPropertyOp0
 70
     1
102
RTVSPropertyOp1
 70
     1
102
RTVSPropertyOp2
 70
     1
102
RTVSPropertyOp3
 70
     1
102
RTVSPropertyOp4
 70
     1
102
RTVSPropertyOp5
 70
     1
102
RTVSPropertyOp6
 70
     1
102
RTVSPropertyOp7
 70
     1
102
RTVSPropertyOp8
 70
     1
102
RTVSPropertyOp9
 70
     1
102
RTVSPropertyOp10
 70
     1
102
RTVSPropertyOp11
 70
     1
102
RTVSPropertyOp12
 70
     1
102
RTVSPropertyOp13
 70
     1
102
RTVSPropertyOp14
 70
     1
102
RTVSPropertyOp15
 70
     1
102
RTVSPropertyOp16
 70
     1
102
RTVSPropertyOp17
 70
     1
102
RTVSPropertyOp18
 70
     1
102
RTVSPropertyOp19
 70
     1
102
RTVSPropertyOp20
 70
     1
102
RTVSPropertyOp21
 70
     1
102
RTVSPropertyOp22
 70
     1
102
RTVSPropertyOp23
 70
     1
102
RTVSPropertyOp24
 70
     1
102
RTVSPropertyOp25
 70
     1
102
RTVSPropertyOp26
 70
     1
102
RTVSPropertyOp27
 70
     1
102
RTVSPropertyOp28
 70
     1
102
RTVSPropertyOp29
 70
     1
102
RTVSPropertyOp30
 70
     1
102
RTVSPropertyOp31
 70
     1
102
RTVSPropertyOp32
 70
     1
102
RTVSPropertyOp33
 70
     1
102
RTVSPropertyOp34
 70
     1
102
RTVSPropertyOp35
 70
     1
102
RTVSPropertyOp36
 70
     1
102
RTVSPropertyOp37
 70
     1
102
RTVSPropertyOp38
 70
     1
102
RTVSPropertyOp39
 70
     1
102
RTVSPropertyOp40
 70
     1
102
RTVSPropertyOp41
 70
     1
102
RTVSPropertyOp42
 70
     1
102
RTVSPropertyOp43
 70
     1
102
RTVSPropertyOp44
 70
     1
102
RTVSPropertyOp45
 70
     1
102
RTVSPropertyOp46
 70
     1
102
RTVSPropertyOp47
 70
     1
102
RTVSPropertyOp48
 70
     1
102
RTVSPropertyOp49
 70
     1
102
RTVSPropertyOp50
 70
     1
102
RTVSPropertyOp51
 70
     0
102
RTVSPropertyOp52
 70
     0
102
RTVSPropertyOp53
 70
     1
102
RTVSPropertyOp54
 70
     1
102
RTVSPropertyOp55
 70
     1
102
RTVSPropertyOp56
 70
     1
102
RTVSPropertyOp57
 70
     1
102
RTVSPost2010Prop28
280
     0
102
RTVSPost2010PropOp28
 70
     1
102
RTVSPost2010Prop29
280
     1
102
RTVSPost2010PropOp29
 70
     1
102
RTVSPost2010Prop30
280
     1
102
RTVSPost2010PropOp30
 70
     1
102
RTVSPost2010Prop31
280
     0
102
RTVSPost2010PropOp31
 70
     1
102
RTVSPost2010Prop32
280
     0
102
RTVSPost2010PropOp32
 70
     1
102
RTVSPost2010Prop33
280
     0
102
RTVSPost2010PropOp33
 70
     1
102
RTVSPost2010Prop34
280
     0
102
RTVSPost2010PropOp34
 70
     1
102
RTVSPost2010Prop35
280
     0
102
RTVSPost2010PropOp35
 70
     1
102
RTVSPost2010Prop36
280
     0
102
RTVSPost2010PropOp36
 70
     1
102
RTVSPost2010Prop37
 90
       50
102
RTVSPost2010PropOp37
 70
     1
102
RTVSPost2010Prop38
140
0.0
102
RTVSPost2010PropOp38
 70
     1
102
RTVSPost2010Prop39
140
1.0
102
RTVSPost2010PropOp39
 70
     1
102
RTVSPost2010Prop40
 90
        0
102
RTVSPost2010PropOp40
 70
     1
102
RTVSPost2010Prop41ColorIndex
 90
       18
102
RTVSPost2010Prop41ColorRGB
 90
        0
102
RTVSPost2010PropOp41
 70
     1
102
RTVSPost2010Prop42
 90
       50
102
RTVSPost2010PropOp42
 70
     1
102
RTVSPost2010Prop43
 90
        3
102
RTVSPost2010PropOp43
 70
     1
102
RTVSPost2010Prop44ColorIndex
 90
        5
102
RTVSPost2010Prop44ColorRGB
 90
      255
102
RTVSPost2010PropOp44
 70
     1
102
RTVSPost2010Prop45
280
     0
102
RTVSPost2010PropOp45
 70
     1
102
RTVSPost2010Prop46
 90
       50
102
RTVSPost2010PropOp46
 70
     1
102
RTVSPost2010Prop47
 90
       50
102
RTVSPost2010PropOp47
 70
     1
102
RTVSPost2010Prop48
 90
       50
102
RTVSPost2010PropOp48
 70
     1
102
RTVSPost2010Prop49
280
     0
102
RTVSPost2010PropOp49
 70
     1
102
RTVSPost2010Prop50
 90
       50
102
RTVSPost2010PropOp50
 70
     1
102
RTVSPost2010Prop51ColorIndex
 90
      256
102
RTVSPost2010Prop51ColorRGB
 90
-16777216
102
RTVSPost2010PropOp51
 70
     0
102
RTVSPost2010Prop52
140
1.0
102
RTVSPost2010PropOp52
 70
     0
102
RTVSPost2010Prop53
 90
        2
102
RTVSPost2010PropOp53
 70
     1
102
RTVSPost2010Prop54
  1
strokes_ogs.tif
102
RTVSPost2010PropOp54
 70
     1
102
RTVSPost2010Prop55
280
     0
102
RTVSPost2010PropOp55
 70
     1
102
RTVSPost2010Prop56
140
1.0
102
RTVSPost2010PropOp56
 70
     1
102
RTVSPost2010Prop57
140
1.0
102
RTVSPost2010PropOp57
 70
     1
  0
XRECORD
  5
220
102
{ACAD_REACTORS
330
21F
102
}
330
21F
100
AcDbXrecord
280
     1
102
RTVSPropertyOp0
 70
     1
102
RTVSPropertyOp1
 70
     1
102
RTVSPropertyOp2
 70
     1
102
RTVSPropertyOp3
 70
     1
102
RTVSPropertyOp4
 70
     1
102
RTVSPropertyOp5
 70
     1
102
RTVSPropertyOp6
 70
     1
102
RTVSPropertyOp7
 70
     1
102
RTVSPropertyOp8
 70
     1
102
RTVSPropertyOp9
 70
     1
102
RTVSPropertyOp10
 70
     1
102
RTVSPropertyOp11
 70
     1
102
RTVSPropertyOp12
 70
     1
102
RTVSPropertyOp13
 70
     1
102
RTVSPropertyOp14
 70
     1
102
RTVSPropertyOp15
 70
     1
102
RTVSPropertyOp16
 70
     1
102
RTVSPropertyOp17
 70
     1
102
RTVSPropertyOp18
 70
     1
102
RTVSPropertyOp19
 70
     1
102
RTVSPropertyOp20
 70
     1
102
RTVSPropertyOp21
 70
     1
102
RTVSPropertyOp22
 70
     1
102
RTVSPropertyOp23
 70
     1
102
RTVSPropertyOp24
 70
     1
102
RTVSPropertyOp25
 70
     1
102
RTVSPropertyOp26
 70
     1
102
RTVSPropertyOp27
 70
     1
102
RTVSPropertyOp28
 70
     1
102
RTVSPropertyOp29
 70
     1
102
RTVSPropertyOp30
 70
     1
102
RTVSPropertyOp31
 70
     1
102
RTVSPropertyOp32
 70
     1
102
RTVSPropertyOp33
 70
     1
102
RTVSPropertyOp34
 70
     1
102
RTVSPropertyOp35
 70
     1
102
RTVSPropertyOp36
 70
     1
102
RTVSPropertyOp37
 70
     1
102
RTVSPropertyOp38
 70
     1
102
RTVSPropertyOp39
 70
     1
102
RTVSPropertyOp40
 70
     1
102
RTVSPropertyOp41
 70
     1
102
RTVSPropertyOp42
 70
     1
102
RTVSPropertyOp43
 70
     1
102
RTVSPropertyOp44
 70
     1
102
RTVSPropertyOp45
 70
     1
102
RTVSPropertyOp46
 70
     1
102
RTVSPropertyOp47
 70
     1
102
RTVSPropertyOp48
 70
     1
102
RTVSPropertyOp49
 70
     1
102
RTVSPropertyOp50
 70
     1
102
RTVSPropertyOp51
 70
     0
102
RTVSPropertyOp52
 70
     0
102
RTVSPropertyOp53
 70
     1
102
RTVSPropertyOp54
 70
     1
102
RTVSPropertyOp55
 70
     1
102
RTVSPropertyOp56
 70
     1
102
RTVSPropertyOp57
 70
     1
102
RTVSPost2010Prop28
280
     0
102
RTVSPost2010PropOp28
 70
     1
102
RTVSPost2010Prop29
280
     1
102
RTVSPost2010PropOp29
 70
     1
102
RTVSPost2010Prop30
280
     1
102
RTVSPost2010PropOp30
 70
     1
102
RTVSPost2010Prop31
280
     0
102
RTVSPost2010PropOp31
 70
     1
102
RTVSPost2010Prop32
280
     0
102
RTVSPost2010PropOp32
 70
     1
102
RTVSPost2010Prop33
280
     0
102
RTVSPost2010PropOp33
 70
     1
102
RTVSPost2010Prop34
280
     0
102
RTVSPost2010PropOp34
 70
     1
102
RTVSPost2010Prop35
280
     0
102
RTVSPost2010PropOp35
 70
     1
102
RTVSPost2010Prop36
280
     0
102
RTVSPost2010PropOp36
 70
     1
102
RTVSPost2010Prop37
 90
       50
102
RTVSPost2010PropOp37
 70
     1
102
RTVSPost2010Prop38
140
0.0
102
RTVSPost2010PropOp38
 70
     1
102
RTVSPost2010Prop39
140
1.0
102
RTVSPost2010PropOp39
 70
     1
102
RTVSPost2010Prop40
 90
        0
102
RTVSPost2010PropOp40
 70
     1
102
RTVSPost2010Prop41ColorIndex
 90
       18
102
RTVSPost2010Prop41ColorRGB
 90
        0
102
RTVSPost2010PropOp41
 70
     1
102
RTVSPost2010Prop42
 90
       50
102
RTVSPost2010PropOp42
 70
     1
102
RTVSPost2010Prop43
 90
        3
102
RTVSPost2010PropOp43
 70
     1
102
RTVSPost2010Prop44ColorIndex
 90
        5
102
RTVSPost2010Prop44ColorRGB
 90
      255
102
RTVSPost2010PropOp44
 70
     1
102
RTVSPost2010Prop45
280
     0
102
RTVSPost2010PropOp45
 70
     1
102
RTVSPost2010Prop46
 90
       50
102
RTVSPost2010PropOp46
 70
     1
102
RTVSPost2010Prop47
 90
       50
102
RTVSPost2010PropOp47
 70
     1
102
RTVSPost2010Prop48
 90
       50
102
RTVSPost2010PropOp48
 70
     1
102
RTVSPost2010Prop49
280
     0
102
RTVSPost2010PropOp49
 70
     1
102
RTVSPost2010Prop50
 90
       50
102
RTVSPost2010PropOp50
 70
     1
102
RTVSPost2010Prop51ColorIndex
 90
      256
102
RTVSPost2010Prop51ColorRGB
 90
-16777216
102
RTVSPost2010PropOp51
 70
     0
102
RTVSPost2010Prop52
140
1.0
102
RTVSPost2010PropOp52
 70
     0
102
RTVSPost2010Prop53
 90
        2
102
RTVSPost2010PropOp53
 70
     1
102
RTVSPost2010Prop54
  1
strokes_ogs.tif
102
RTVSPost2010PropOp54
 70
     1
102
RTVSPost2010Prop55
280
     0
102
RTVSPost2010PropOp55
 70
     1
102
RTVSPost2010Prop56
140
1.0
102
RTVSPost2010PropOp56
 70
     1
102
RTVSPost2010Prop57
140
1.0
102
RTVSPost2010PropOp57
 70
     1
  0
XRECORD
  5
222
102
{ACAD_REACTORS
330
221
102
}
330
221
100
AcDbXrecord
280
     1
102
RTVSPropertyOp0
 70
     1
102
RTVSPropertyOp1
 70
     1
102
RTVSPropertyOp2
 70
     1
102
RTVSPropertyOp3
 70
     1
102
RTVSPropertyOp4
 70
     1
102
RTVSPropertyOp5
 70
     1
102
RTVSPropertyOp6
 70
     1
102
RTVSPropertyOp7
 70
     1
102
RTVSPropertyOp8
 70
     1
102
RTVSPropertyOp9
 70
     1
102
RTVSPropertyOp10
 70
     1
102
RTVSPropertyOp11
 70
     1
102
RTVSPropertyOp12
 70
     1
102
RTVSPropertyOp13
 70
     1
102
RTVSPropertyOp14
 70
     1
102
RTVSPropertyOp15
 70
     1
102
RTVSPropertyOp16
 70
     1
102
RTVSPropertyOp17
 70
     1
102
RTVSPropertyOp18
 70
     1
102
RTVSPropertyOp19
 70
     1
102
RTVSPropertyOp20
 70
     1
102
RTVSPropertyOp21
 70
     1
102
RTVSPropertyOp22
 70
     1
102
RTVSPropertyOp23
 70
     1
102
RTVSPropertyOp24
 70
     1
102
RTVSPropertyOp25
 70
     1
102
RTVSPropertyOp26
 70
     1
102
RTVSPropertyOp27
 70
     1
102
RTVSPropertyOp28
 70
     1
102
RTVSPropertyOp29
 70
     1
102
RTVSPropertyOp30
 70
     1
102
RTVSPropertyOp31
 70
     1
102
RTVSPropertyOp32
 70
     1
102
RTVSPropertyOp33
 70
     1
102
RTVSPropertyOp34
 70
     1
102
RTVSPropertyOp35
 70
     1
102
RTVSPropertyOp36
 70
     1
102
RTVSPropertyOp37
 70
     1
102
RTVSPropertyOp38
 70
     1
102
RTVSPropertyOp39
 70
     1
102
RTVSPropertyOp40
 70
     1
102
RTVSPropertyOp41
 70
     1
102
RTVSPropertyOp42
 70
     1
102
RTVSPropertyOp43
 70
     1
102
RTVSPropertyOp44
 70
     1
102
RTVSPropertyOp45
 70
     1
102
RTVSPropertyOp46
 70
     1
102
RTVSPropertyOp47
 70
     1
102
RTVSPropertyOp48
 70
     1
102
RTVSPropertyOp49
 70
     1
102
RTVSPropertyOp50
 70
     1
102
RTVSPropertyOp51
 70
     0
102
RTVSPropertyOp52
 70
     0
102
RTVSPropertyOp53
 70
     1
102
RTVSPropertyOp54
 70
     1
102
RTVSPropertyOp55
 70
     1
102
RTVSPropertyOp56
 70
     1
102
RTVSPropertyOp57
 70
     1
102
RTVSPost2010Prop28
280
     0
102
RTVSPost2010PropOp28
 70
     1
102
RTVSPost2010Prop29
280
     1
102
RTVSPost2010PropOp29
 70
     1
102
RTVSPost2010Prop30
280
     1
102
RTVSPost2010PropOp30
 70
     1
102
RTVSPost2010Prop31
280
     0
102
RTVSPost2010PropOp31
 70
     1
102
RTVSPost2010Prop32
280
     0
102
RTVSPost2010PropOp32
 70
     1
102
RTVSPost2010Prop33
280
     0
102
RTVSPost2010PropOp33
 70
     1
102
RTVSPost2010Prop34
280
     0
102
RTVSPost2010PropOp34
 70
     1
102
RTVSPost2010Prop35
280
     0
102
RTVSPost2010PropOp35
 70
     1
102
RTVSPost2010Prop36
280
     0
102
RTVSPost2010PropOp36
 70
     1
102
RTVSPost2010Prop37
 90
       50
102
RTVSPost2010PropOp37
 70
     1
102
RTVSPost2010Prop38
140
0.0
102
RTVSPost2010PropOp38
 70
     1
102
RTVSPost2010Prop39
140
1.0
102
RTVSPost2010PropOp39
 70
     1
102
RTVSPost2010Prop40
 90
        0
102
RTVSPost2010PropOp40
 70
     1
102
RTVSPost2010Prop41ColorIndex
 90
       18
102
RTVSPost2010Prop41ColorRGB
 90
        0
102
RTVSPost2010PropOp41
 70
     1
102
RTVSPost2010Prop42
 90
       50
102
RTVSPost2010PropOp42
 70
     1
102
RTVSPost2010Prop43
 90
        3
102
RTVSPost2010PropOp43
 70
     1
102
RTVSPost2010Prop44ColorIndex
 90
        5
102
RTVSPost2010Prop44ColorRGB
 90
      255
102
RTVSPost2010PropOp44
 70
     1
102
RTVSPost2010Prop45
280
     0
102
RTVSPost2010PropOp45
 70
     1
102
RTVSPost2010Prop46
 90
       50
102
RTVSPost2010PropOp46
 70
     1
102
RTVSPost2010Prop47
 90
       50
102
RTVSPost2010PropOp47
 70
     1
102
RTVSPost2010Prop48
 90
       50
102
RTVSPost2010PropOp48
 70
     1
102
RTVSPost2010Prop49
280
     0
102
RTVSPost2010PropOp49
 70
     1
102
RTVSPost2010Prop50
 90
       50
102
RTVSPost2010PropOp50
 70
     1
102
RTVSPost2010Prop51ColorIndex
 90
      256
102
RTVSPost2010Prop51ColorRGB
 90
-16777216
102
RTVSPost2010PropOp51
 70
     0
102
RTVSPost2010Prop52
140
1.0
102
RTVSPost2010PropOp52
 70
     0
102
RTVSPost2010Prop53
 90
        2
102
RTVSPost2010PropOp53
 70
     1
102
RTVSPost2010Prop54
  1
strokes_ogs.tif
102
RTVSPost2010PropOp54
 70
     1
102
RTVSPost2010Prop55
280
     0
102
RTVSPost2010PropOp55
 70
     1
102
RTVSPost2010Prop56
140
1.0
102
RTVSPost2010PropOp56
 70
     1
102
RTVSPost2010Prop57
140
1.0
102
RTVSPost2010PropOp57
 70
     1
  0
XRECORD
  5
224
102
{ACAD_REACTORS
330
223
102
}
330
223
100
AcDbXrecord
280
     1
102
RTVSPropertyOp0
 70
     1
102
RTVSPropertyOp1
 70
     1
102
RTVSPropertyOp2
 70
     1
102
RTVSPropertyOp3
 70
     1
102
RTVSPropertyOp4
 70
     1
102
RTVSPropertyOp5
 70
     1
102
RTVSPropertyOp6
 70
     1
102
RTVSPropertyOp7
 70
     1
102
RTVSPropertyOp8
 70
     1
102
RTVSPropertyOp9
 70
     1
102
RTVSPropertyOp10
 70
     1
102
RTVSPropertyOp11
 70
     1
102
RTVSPropertyOp12
 70
     1
102
RTVSPropertyOp13
 70
     1
102
RTVSPropertyOp14
 70
     1
102
RTVSPropertyOp15
 70
     1
102
RTVSPropertyOp16
 70
     1
102
RTVSPropertyOp17
 70
     1
102
RTVSPropertyOp18
 70
     1
102
RTVSPropertyOp19
 70
     1
102
RTVSPropertyOp20
 70
     1
102
RTVSPropertyOp21
 70
     1
102
RTVSPropertyOp22
 70
     1
102
RTVSPropertyOp23
 70
     1
102
RTVSPropertyOp24
 70
     1
102
RTVSPropertyOp25
 70
     1
102
RTVSPropertyOp26
 70
     1
102
RTVSPropertyOp27
 70
     1
102
RTVSPropertyOp28
 70
     1
102
RTVSPropertyOp29
 70
     1
102
RTVSPropertyOp30
 70
     1
102
RTVSPropertyOp31
 70
     1
102
RTVSPropertyOp32
 70
     1
102
RTVSPropertyOp33
 70
     1
102
RTVSPropertyOp34
 70
     1
102
RTVSPropertyOp35
 70
     1
102
RTVSPropertyOp36
 70
     1
102
RTVSPropertyOp37
 70
     1
102
RTVSPropertyOp38
 70
     1
102
RTVSPropertyOp39
 70
     1
102
RTVSPropertyOp40
 70
     1
102
RTVSPropertyOp41
 70
     1
102
RTVSPropertyOp42
 70
     1
102
RTVSPropertyOp43
 70
     1
102
RTVSPropertyOp44
 70
     1
102
RTVSPropertyOp45
 70
     1
102
RTVSPropertyOp46
 70
     1
102
RTVSPropertyOp47
 70
     1
102
RTVSPropertyOp48
 70
     1
102
RTVSPropertyOp49
 70
     1
102
RTVSPropertyOp50
 70
     1
102
RTVSPropertyOp51
 70
     0
102
RTVSPropertyOp52
 70
     0
102
RTVSPropertyOp53
 70
     1
102
RTVSPropertyOp54
 70
     1
102
RTVSPropertyOp55
 70
     1
102
RTVSPropertyOp56
 70
     1
102
RTVSPropertyOp57
 70
     1
102
RTVSPost2010Prop28
280
     0
102
RTVSPost2010PropOp28
 70
     1
102
RTVSPost2010Prop29
280
     1
102
RTVSPost2010PropOp29
 70
     1
102
RTVSPost2010Prop30
280
     1
102
RTVSPost2010PropOp30
 70
     1
102
RTVSPost2010Prop31
280
     0
102
RTVSPost2010PropOp31
 70
     1
102
RTVSPost2010Prop32
280
     0
102
RTVSPost2010PropOp32
 70
     1
102
RTVSPost2010Prop33
280
     0
102
RTVSPost2010PropOp33
 70
     1
102
RTVSPost2010Prop34
280
     0
102
RTVSPost2010PropOp34
 70
     1
102
RTVSPost2010Prop35
280
     0
102
RTVSPost2010PropOp35
 70
     1
102
RTVSPost2010Prop36
280
     0
102
RTVSPost2010PropOp36
 70
     1
102
RTVSPost2010Prop37
 90
       50
102
RTVSPost2010PropOp37
 70
     1
102
RTVSPost2010Prop38
140
0.0
102
RTVSPost2010PropOp38
 70
     1
102
RTVSPost2010Prop39
140
1.0
102
RTVSPost2010PropOp39
 70
     1
102
RTVSPost2010Prop40
 90
        0
102
RTVSPost2010PropOp40
 70
     1
102
RTVSPost2010Prop41ColorIndex
 90
       18
102
RTVSPost2010Prop41ColorRGB
 90
        0
102
RTVSPost2010PropOp41
 70
     1
102
RTVSPost2010Prop42
 90
       50
102
RTVSPost2010PropOp42
 70
     1
102
RTVSPost2010Prop43
 90
        3
102
RTVSPost2010PropOp43
 70
     1
102
RTVSPost2010Prop44ColorIndex
 90
        5
102
RTVSPost2010Prop44ColorRGB
 90
      255
102
RTVSPost2010PropOp44
 70
     1
102
RTVSPost2010Prop45
280
     0
102
RTVSPost2010PropOp45
 70
     1
102
RTVSPost2010Prop46
 90
       50
102
RTVSPost2010PropOp46
 70
     1
102
RTVSPost2010Prop47
 90
       50
102
RTVSPost2010PropOp47
 70
     1
102
RTVSPost2010Prop48
 90
       50
102
RTVSPost2010PropOp48
 70
     1
102
RTVSPost2010Prop49
280
     0
102
RTVSPost2010PropOp49
 70
     1
102
RTVSPost2010Prop50
 90
       50
102
RTVSPost2010PropOp50
 70
     1
102
RTVSPost2010Prop51ColorIndex
 90
      256
102
RTVSPost2010Prop51ColorRGB
 90
-16777216
102
RTVSPost2010PropOp51
 70
     0
102
RTVSPost2010Prop52
140
1.0
102
RTVSPost2010PropOp52
 70
     0
102
RTVSPost2010Prop53
 90
        2
102
RTVSPost2010PropOp53
 70
     1
102
RTVSPost2010Prop54
  1
strokes_ogs.tif
102
RTVSPost2010PropOp54
 70
     1
102
RTVSPost2010Prop55
280
     0
102
RTVSPost2010PropOp55
 70
     1
102
RTVSPost2010Prop56
140
1.0
102
RTVSPost2010PropOp56
 70
     1
102
RTVSPost2010Prop57
140
1.0
102
RTVSPost2010PropOp57
 70
     1
  0
XRECORD
  5
226
102
{ACAD_REACTORS
330
225
102
}
330
225
100
AcDbXrecord
280
     1
102
RTVSPropertyOp0
 70
     1
102
RTVSPropertyOp1
 70
     1
102
RTVSPropertyOp2
 70
     1
102
RTVSPropertyOp3
 70
     1
102
RTVSPropertyOp4
 70
     1
102
RTVSPropertyOp5
 70
     1
102
RTVSPropertyOp6
 70
     1
102
RTVSPropertyOp7
 70
     1
102
RTVSPropertyOp8
 70
     1
102
RTVSPropertyOp9
 70
     1
102
RTVSPropertyOp10
 70
     1
102
RTVSPropertyOp11
 70
     1
102
RTVSPropertyOp12
 70
     1
102
RTVSPropertyOp13
 70
     1
102
RTVSPropertyOp14
 70
     1
102
RTVSPropertyOp15
 70
     1
102
RTVSPropertyOp16
 70
     1
102
RTVSPropertyOp17
 70
     1
102
RTVSPropertyOp18
 70
     1
102
RTVSPropertyOp19
 70
     1
102
RTVSPropertyOp20
 70
     1
102
RTVSPropertyOp21
 70
     1
102
RTVSPropertyOp22
 70
     1
102
RTVSPropertyOp23
 70
     1
102
RTVSPropertyOp24
 70
     1
102
RTVSPropertyOp25
 70
     1
102
RTVSPropertyOp26
 70
     1
102
RTVSPropertyOp27
 70
     1
102
RTVSPropertyOp28
 70
     1
102
RTVSPropertyOp29
 70
     1
102
RTVSPropertyOp30
 70
     1
102
RTVSPropertyOp31
 70
     1
102
RTVSPropertyOp32
 70
     1
102
RTVSPropertyOp33
 70
     1
102
RTVSPropertyOp34
 70
     1
102
RTVSPropertyOp35
 70
     1
102
RTVSPropertyOp36
 70
     1
102
RTVSPropertyOp37
 70
     1
102
RTVSPropertyOp38
 70
     1
102
RTVSPropertyOp39
 70
     1
102
RTVSPropertyOp40
 70
     1
102
RTVSPropertyOp41
 70
     1
102
RTVSPropertyOp42
 70
     1
102
RTVSPropertyOp43
 70
     1
102
RTVSPropertyOp44
 70
     1
102
RTVSPropertyOp45
 70
     1
102
RTVSPropertyOp46
 70
     1
102
RTVSPropertyOp47
 70
     1
102
RTVSPropertyOp48
 70
     1
102
RTVSPropertyOp49
 70
     1
102
RTVSPropertyOp50
 70
     1
102
RTVSPropertyOp51
 70
     0
102
RTVSPropertyOp52
 70
     0
102
RTVSPropertyOp53
 70
     1
102
RTVSPropertyOp54
 70
     1
102
RTVSPropertyOp55
 70
     1
102
RTVSPropertyOp56
 70
     1
102
RTVSPropertyOp57
 70
     1
102
RTVSPost2010Prop28
280
     0
102
RTVSPost2010PropOp28
 70
     1
102
RTVSPost2010Prop29
280
     1
102
RTVSPost2010PropOp29
 70
     1
102
RTVSPost2010Prop30
280
     1
102
RTVSPost2010PropOp30
 70
     1
102
RTVSPost2010Prop31
280
     0
102
RTVSPost2010PropOp31
 70
     1
102
RTVSPost2010Prop32
280
     0
102
RTVSPost2010PropOp32
 70
     1
102
RTVSPost2010Prop33
280
     0
102
RTVSPost2010PropOp33
 70
     1
102
RTVSPost2010Prop34
280
     0
102
RTVSPost2010PropOp34
 70
     1
102
RTVSPost2010Prop35
280
     0
102
RTVSPost2010PropOp35
 70
     1
102
RTVSPost2010Prop36
280
     0
102
RTVSPost2010PropOp36
 70
     1
102
RTVSPost2010Prop37
 90
       50
102
RTVSPost2010PropOp37
 70
     1
102
RTVSPost2010Prop38
140
0.0
102
RTVSPost2010PropOp38
 70
     1
102
RTVSPost2010Prop39
140
1.0
102
RTVSPost2010PropOp39
 70
     1
102
RTVSPost2010Prop40
 90
        0
102
RTVSPost2010PropOp40
 70
     1
102
RTVSPost2010Prop41ColorIndex
 90
       18
102
RTVSPost2010Prop41ColorRGB
 90
        0
102
RTVSPost2010PropOp41
 70
     1
102
RTVSPost2010Prop42
 90
       50
102
RTVSPost2010PropOp42
 70
     1
102
RTVSPost2010Prop43
 90
        3
102
RTVSPost2010PropOp43
 70
     1
102
RTVSPost2010Prop44ColorIndex
 90
        5
102
RTVSPost2010Prop44ColorRGB
 90
      255
102
RTVSPost2010PropOp44
 70
     1
102
RTVSPost2010Prop45
280
     0
102
RTVSPost2010PropOp45
 70
     1
102
RTVSPost2010Prop46
 90
       50
102
RTVSPost2010PropOp46
 70
     1
102
RTVSPost2010Prop47
 90
       50
102
RTVSPost2010PropOp47
 70
     1
102
RTVSPost2010Prop48
 90
       50
102
RTVSPost2010PropOp48
 70
     1
102
RTVSPost2010Prop49
280
     0
102
RTVSPost2010PropOp49
 70
     1
102
RTVSPost2010Prop50
 90
       50
102
RTVSPost2010PropOp50
 70
     1
102
RTVSPost2010Prop51ColorIndex
 90
      256
102
RTVSPost2010Prop51ColorRGB
 90
-16777216
102
RTVSPost2010PropOp51
 70
     0
102
RTVSPost2010Prop52
140
1.0
102
RTVSPost2010PropOp52
 70
     0
102
RTVSPost2010Prop53
 90
        2
102
RTVSPost2010PropOp53
 70
     1
102
RTVSPost2010Prop54
  1
strokes_ogs.tif
102
RTVSPost2010PropOp54
 70
     1
102
RTVSPost2010Prop55
280
     0
102
RTVSPost2010PropOp55
 70
     1
102
RTVSPost2010Prop56
140
1.0
102
RTVSPost2010PropOp56
 70
     1
102
RTVSPost2010Prop57
140
1.0
102
RTVSPost2010PropOp57
 70
     1
  0
XRECORD
  5
22C
102
{ACAD_REACTORS
330
22B
102
}
330
22B
100
AcDbXrecord
280
     1
102
RTVSPropertyOp0
 70
     1
102
RTVSPropertyOp1
 70
     1
102
RTVSPropertyOp2
 70
     1
102
RTVSPropertyOp3
 70
     1
102
RTVSPropertyOp4
 70
     1
102
RTVSPropertyOp5
 70
     1
102
RTVSPropertyOp6
 70
     1
102
RTVSPropertyOp7
 70
     1
102
RTVSPropertyOp8
 70
     1
102
RTVSPropertyOp9
 70
     1
102
RTVSPropertyOp10
 70
     1
102
RTVSPropertyOp11
 70
     1
102
RTVSPropertyOp12
 70
     1
102
RTVSPropertyOp13
 70
     1
102
RTVSPropertyOp14
 70
     1
102
RTVSPropertyOp15
 70
     1
102
RTVSPropertyOp16
 70
     1
102
RTVSPropertyOp17
 70
     1
102
RTVSPropertyOp18
 70
     1
102
RTVSPropertyOp19
 70
     1
102
RTVSPropertyOp20
 70
     1
102
RTVSPropertyOp21
 70
     1
102
RTVSPropertyOp22
 70
     1
102
RTVSPropertyOp23
 70
     1
102
RTVSPropertyOp24
 70
     1
102
RTVSPropertyOp25
 70
     1
102
RTVSPropertyOp26
 70
     1
102
RTVSPropertyOp27
 70
     1
102
RTVSPropertyOp28
 70
     1
102
RTVSPropertyOp29
 70
     1
102
RTVSPropertyOp30
 70
     1
102
RTVSPropertyOp31
 70
     1
102
RTVSPropertyOp32
 70
     1
102
RTVSPropertyOp33
 70
     1
102
RTVSPropertyOp34
 70
     1
102
RTVSPropertyOp35
 70
     1
102
RTVSPropertyOp36
 70
     1
102
RTVSPropertyOp37
 70
     1
102
RTVSPropertyOp38
 70
     1
102
RTVSPropertyOp39
 70
     1
102
RTVSPropertyOp40
 70
     1
102
RTVSPropertyOp41
 70
     1
102
RTVSPropertyOp42
 70
     1
102
RTVSPropertyOp43
 70
     1
102
RTVSPropertyOp44
 70
     1
102
RTVSPropertyOp45
 70
     1
102
RTVSPropertyOp46
 70
     1
102
RTVSPropertyOp47
 70
     1
102
RTVSPropertyOp48
 70
     1
102
RTVSPropertyOp49
 70
     1
102
RTVSPropertyOp50
 70
     1
102
RTVSPropertyOp51
 70
     0
102
RTVSPropertyOp52
 70
     0
102
RTVSPropertyOp53
 70
     1
102
RTVSPropertyOp54
 70
     1
102
RTVSPropertyOp55
 70
     1
102
RTVSPropertyOp56
 70
     1
102
RTVSPropertyOp57
 70
     1
102
RTVSPost2010Prop28
280
     0
102
RTVSPost2010PropOp28
 70
     1
102
RTVSPost2010Prop29
280
     1
102
RTVSPost2010PropOp29
 70
     1
102
RTVSPost2010Prop30
280
     1
102
RTVSPost2010PropOp30
 70
     1
102
RTVSPost2010Prop31
280
     0
102
RTVSPost2010PropOp31
 70
     1
102
RTVSPost2010Prop32
280
     0
102
RTVSPost2010PropOp32
 70
     1
102
RTVSPost2010Prop33
280
     0
102
RTVSPost2010PropOp33
 70
     1
102
RTVSPost2010Prop34
280
     0
102
RTVSPost2010PropOp34
 70
     1
102
RTVSPost2010Prop35
280
     0
102
RTVSPost2010PropOp35
 70
     1
102
RTVSPost2010Prop36
280
     0
102
RTVSPost2010PropOp36
 70
     1
102
RTVSPost2010Prop37
 90
       50
102
RTVSPost2010PropOp37
 70
     1
102
RTVSPost2010Prop38
140
0.0
102
RTVSPost2010PropOp38
 70
     1
102
RTVSPost2010Prop39
140
1.0
102
RTVSPost2010PropOp39
 70
     1
102
RTVSPost2010Prop40
 90
        0
102
RTVSPost2010PropOp40
 70
     1
102
RTVSPost2010Prop41ColorIndex
 90
       18
102
RTVSPost2010Prop41ColorRGB
 90
        0
102
RTVSPost2010PropOp41
 70
     1
102
RTVSPost2010Prop42
 90
       50
102
RTVSPost2010PropOp42
 70
     1
102
RTVSPost2010Prop43
 90
        3
102
RTVSPost2010PropOp43
 70
     1
102
RTVSPost2010Prop44ColorIndex
 90
        5
102
RTVSPost2010Prop44ColorRGB
 90
      255
102
RTVSPost2010PropOp44
 70
     1
102
RTVSPost2010Prop45
280
     0
102
RTVSPost2010PropOp45
 70
     1
102
RTVSPost2010Prop46
 90
       50
102
RTVSPost2010PropOp46
 70
     1
102
RTVSPost2010Prop47
 90
       50
102
RTVSPost2010PropOp47
 70
     1
102
RTVSPost2010Prop48
 90
       50
102
RTVSPost2010PropOp48
 70
     1
102
RTVSPost2010Prop49
280
     0
102
RTVSPost2010PropOp49
 70
     1
102
RTVSPost2010Prop50
 90
       50
102
RTVSPost2010PropOp50
 70
     1
102
RTVSPost2010Prop51ColorIndex
 90
      256
102
RTVSPost2010Prop51ColorRGB
 90
-16777216
102
RTVSPost2010PropOp51
 70
     0
102
RTVSPost2010Prop52
140
1.0
102
RTVSPost2010PropOp52
 70
     0
102
RTVSPost2010Prop53
 90
        2
102
RTVSPost2010PropOp53
 70
     1
102
RTVSPost2010Prop54
  1
strokes_ogs.tif
102
RTVSPost2010PropOp54
 70
     1
102
RTVSPost2010Prop55
280
     0
102
RTVSPost2010PropOp55
 70
     1
102
RTVSPost2010Prop56
140
1.0
102
RTVSPost2010PropOp56
 70
     1
102
RTVSPost2010Prop57
140
1.0
102
RTVSPost2010PropOp57
 70
     1
  0
XRECORD
  5
240
102
{ACAD_REACTORS
330
23F
102
}
330
23F
100
AcDbXrecord
280
     1
102
RTVSPropertyOp0
 70
     0
102
RTVSPropertyOp1
 70
     0
102
RTVSPropertyOp2
 70
     0
102
RTVSPropertyOp3
 70
     0
102
RTVSPropertyOp4
 70
     0
102
RTVSPropertyOp5
 70
     0
102
RTVSPropertyOp6
 70
     0
102
RTVSPropertyOp7
 70
     0
102
RTVSPropertyOp8
 70
     0
102
RTVSPropertyOp9
 70
     0
102
RTVSPropertyOp10
 70
     0
102
RTVSPropertyOp11
 70
     0
102
RTVSPropertyOp12
 70
     0
102
RTVSPropertyOp13
 70
     0
102
RTVSPropertyOp14
 70
     2
102
RTVSPropertyOp15
 70
     0
102
RTVSPropertyOp16
 70
     0
102
RTVSPropertyOp17
 70
     0
102
RTVSPropertyOp18
 70
     0
102
RTVSPropertyOp19
 70
     0
102
RTVSPropertyOp20
 70
     0
102
RTVSPropertyOp21
 70
     0
102
RTVSPropertyOp22
 70
     0
102
RTVSPropertyOp23
 70
     0
102
RTVSPropertyOp24
 70
     0
102
RTVSPropertyOp25
 70
     0
102
RTVSPropertyOp26
 70
     0
102
RTVSPropertyOp27
 70
     0
102
RTVSPropertyOp28
 70
     0
102
RTVSPropertyOp29
 70
     0
102
RTVSPropertyOp30
 70
     0
102
RTVSPropertyOp31
 70
     0
102
RTVSPropertyOp32
 70
     0
102
RTVSPropertyOp33
 70
     0
102
RTVSPropertyOp34
 70
     0
102
RTVSPropertyOp35
 70
     0
102
RTVSPropertyOp36
 70
     0
102
RTVSPropertyOp37
 70
     0
102
RTVSPropertyOp38
 70
     0
102
RTVSPropertyOp39
 70
     0
102
RTVSPropertyOp40
 70
     0
102
RTVSPropertyOp41
 70
     0
102
RTVSPropertyOp42
 70
     0
102
RTVSPropertyOp43
 70
     0
102
RTVSPropertyOp44
 70
     0
102
RTVSPropertyOp45
 70
     0
102
RTVSPropertyOp46
 70
     0
102
RTVSPropertyOp47
 70
     0
102
RTVSPropertyOp48
 70
     0
102
RTVSPropertyOp49
 70
     0
102
RTVSPropertyOp50
 70
     0
102
RTVSPropertyOp51
 70
     0
102
RTVSPropertyOp52
 70
     0
102
RTVSPropertyOp53
 70
     0
102
RTVSPropertyOp54
 70
     0
102
RTVSPropertyOp55
 70
     0
102
RTVSPropertyOp56
 70
     0
102
RTVSPropertyOp57
 70
     0
102
RTVSPost2010Prop28
280
     0
102
RTVSPost2010PropOp28
 70
     0
102
RTVSPost2010Prop29
280
     1
102
RTVSPost2010PropOp29
 70
     0
102
RTVSPost2010Prop30
280
     1
102
RTVSPost2010PropOp30
 70
     0
102
RTVSPost2010Prop31
280
     0
102
RTVSPost2010PropOp31
 70
     0
102
RTVSPost2010Prop32
280
     0
102
RTVSPost2010PropOp32
 70
     0
102
RTVSPost2010Prop33
280
     0
102
RTVSPost2010PropOp33
 70
     0
102
RTVSPost2010Prop34
280
     0
102
RTVSPost2010PropOp34
 70
     0
102
RTVSPost2010Prop35
280
     0
102
RTVSPost2010PropOp35
 70
     0
102
RTVSPost2010Prop36
280
     0
102
RTVSPost2010PropOp36
 70
     0
102
RTVSPost2010Prop37
 90
       50
102
RTVSPost2010PropOp37
 70
     0
102
RTVSPost2010Prop38
140
0.0
102
RTVSPost2010PropOp38
 70
     0
102
RTVSPost2010Prop39
140
1.0
102
RTVSPost2010PropOp39
 70
     0
102
RTVSPost2010Prop40
 90
        0
102
RTVSPost2010PropOp40
 70
     0
102
RTVSPost2010Prop41ColorIndex
 90
       18
102
RTVSPost2010Prop41ColorRGB
 90
        0
102
RTVSPost2010PropOp41
 70
     0
102
RTVSPost2010Prop42
 90
       50
102
RTVSPost2010PropOp42
 70
     0
102
RTVSPost2010Prop43
 90
        3
102
RTVSPost2010PropOp43
 70
     0
102
RTVSPost2010Prop44ColorIndex
 90
        5
102
RTVSPost2010Prop44ColorRGB
 90
      255
102
RTVSPost2010PropOp44
 70
     0
102
RTVSPost2010Prop45
280
     0
102
RTVSPost2010PropOp45
 70
     0
102
RTVSPost2010Prop46
 90
       50
102
RTVSPost2010PropOp46
 70
     0
102
RTVSPost2010Prop47
 90
       50
102
RTVSPost2010PropOp47
 70
     0
102
RTVSPost2010Prop48
 90
       50
102
RTVSPost2010PropOp48
 70
     0
102
RTVSPost2010Prop49
280
     0
102
RTVSPost2010PropOp49
 70
     0
102
RTVSPost2010Prop50
 90
       50
102
RTVSPost2010PropOp50
 70
     0
102
RTVSPost2010Prop51ColorIndex
 90
      256
102
RTVSPost2010Prop51ColorRGB
 90
-16777216
102
RTVSPost2010PropOp51
 70
     0
102
RTVSPost2010Prop52
140
1.0
102
RTVSPost2010PropOp52
 70
     0
102
RTVSPost2010Prop53
 90
        2
102
RTVSPost2010PropOp53
 70
     0
102
RTVSPost2010Prop54
  1
strokes_ogs.tif
102
RTVSPost2010PropOp54
 70
     0
102
RTVSPost2010Prop55
280
     0
102
RTVSPost2010PropOp55
 70
     0
102
RTVSPost2010Prop56
140
1.0
102
RTVSPost2010PropOp56
 70
     0
102
RTVSPost2010Prop57
140
1.0
102
RTVSPost2010PropOp57
 70
     0
  0
XRECORD
  5
23A
102
{ACAD_REACTORS
330
239
102
}
330
239
100
AcDbXrecord
280
     1
102
RTVSPropertyOp0
 70
     1
102
RTVSPropertyOp1
 70
     1
102
RTVSPropertyOp2
 70
     1
102
RTVSPropertyOp3
 70
     1
102
RTVSPropertyOp4
 70
     1
102
RTVSPropertyOp5
 70
     1
102
RTVSPropertyOp6
 70
     1
102
RTVSPropertyOp7
 70
     1
102
RTVSPropertyOp8
 70
     1
102
RTVSPropertyOp9
 70
     1
102
RTVSPropertyOp10
 70
     1
102
RTVSPropertyOp11
 70
     1
102
RTVSPropertyOp12
 70
     1
102
RTVSPropertyOp13
 70
     1
102
RTVSPropertyOp14
 70
     1
102
RTVSPropertyOp15
 70
     1
102
RTVSPropertyOp16
 70
     1
102
RTVSPropertyOp17
 70
     1
102
RTVSPropertyOp18
 70
     1
102
RTVSPropertyOp19
 70
     1
102
RTVSPropertyOp20
 70
     1
102
RTVSPropertyOp21
 70
     1
102
RTVSPropertyOp22
 70
     1
102
RTVSPropertyOp23
 70
     1
102
RTVSPropertyOp24
 70
     1
102
RTVSPropertyOp25
 70
     1
102
RTVSPropertyOp26
 70
     1
102
RTVSPropertyOp27
 70
     1
102
RTVSPropertyOp28
 70
     1
102
RTVSPropertyOp29
 70
     1
102
RTVSPropertyOp30
 70
     1
102
RTVSPropertyOp31
 70
     1
102
RTVSPropertyOp32
 70
     1
102
RTVSPropertyOp33
 70
     1
102
RTVSPropertyOp34
 70
     1
102
RTVSPropertyOp35
 70
     1
102
RTVSPropertyOp36
 70
     1
102
RTVSPropertyOp37
 70
     1
102
RTVSPropertyOp38
 70
     1
102
RTVSPropertyOp39
 70
     1
102
RTVSPropertyOp40
 70
     1
102
RTVSPropertyOp41
 70
     1
102
RTVSPropertyOp42
 70
     1
102
RTVSPropertyOp43
 70
     1
102
RTVSPropertyOp44
 70
     1
102
RTVSPropertyOp45
 70
     1
102
RTVSPropertyOp46
 70
     1
102
RTVSPropertyOp47
 70
     1
102
RTVSPropertyOp48
 70
     1
102
RTVSPropertyOp49
 70
     1
102
RTVSPropertyOp50
 70
     1
102
RTVSPropertyOp51
 70
     0
102
RTVSPropertyOp52
 70
     0
102
RTVSPropertyOp53
 70
     1
102
RTVSPropertyOp54
 70
     1
102
RTVSPropertyOp55
 70
     1
102
RTVSPropertyOp56
 70
     1
102
RTVSPropertyOp57
 70
     1
102
RTVSPost2010Prop28
280
     0
102
RTVSPost2010PropOp28
 70
     1
102
RTVSPost2010Prop29
280
     1
102
RTVSPost2010PropOp29
 70
     1
102
RTVSPost2010Prop30
280
     1
102
RTVSPost2010PropOp30
 70
     1
102
RTVSPost2010Prop31
280
     0
102
RTVSPost2010PropOp31
 70
     1
102
RTVSPost2010Prop32
280
     0
102
RTVSPost2010PropOp32
 70
     1
102
RTVSPost2010Prop33
280
     0
102
RTVSPost2010PropOp33
 70
     1
102
RTVSPost2010Prop34
280
     0
102
RTVSPost2010PropOp34
 70
     1
102
RTVSPost2010Prop35
280
     0
102
RTVSPost2010PropOp35
 70
     1
102
RTVSPost2010Prop36
280
     0
102
RTVSPost2010PropOp36
 70
     1
102
RTVSPost2010Prop37
 90
       50
102
RTVSPost2010PropOp37
 70
     1
102
RTVSPost2010Prop38
140
0.0
102
RTVSPost2010PropOp38
 70
     1
102
RTVSPost2010Prop39
140
1.0
102
RTVSPost2010PropOp39
 70
     1
102
RTVSPost2010Prop40
 90
        0
102
RTVSPost2010PropOp40
 70
     1
102
RTVSPost2010Prop41ColorIndex
 90
       18
102
RTVSPost2010Prop41ColorRGB
 90
        0
102
RTVSPost2010PropOp41
 70
     1
102
RTVSPost2010Prop42
 90
       50
102
RTVSPost2010PropOp42
 70
     1
102
RTVSPost2010Prop43
 90
        3
102
RTVSPost2010PropOp43
 70
     1
102
RTVSPost2010Prop44ColorIndex
 90
        5
102
RTVSPost2010Prop44ColorRGB
 90
      255
102
RTVSPost2010PropOp44
 70
     1
102
RTVSPost2010Prop45
280
     0
102
RTVSPost2010PropOp45
 70
     1
102
RTVSPost2010Prop46
 90
       50
102
RTVSPost2010PropOp46
 70
     1
102
RTVSPost2010Prop47
 90
       50
102
RTVSPost2010PropOp47
 70
     1
102
RTVSPost2010Prop48
 90
       50
102
RTVSPost2010PropOp48
 70
     1
102
RTVSPost2010Prop49
280
     0
102
RTVSPost2010PropOp49
 70
     1
102
RTVSPost2010Prop50
 90
       50
102
RTVSPost2010PropOp50
 70
     1
102
RTVSPost2010Prop51ColorIndex
 90
      256
102
RTVSPost2010Prop51ColorRGB
 90
-16777216
102
RTVSPost2010PropOp51
 70
     0
102
RTVSPost2010Prop52
140
1.0
102
RTVSPost2010PropOp52
 70
     0
102
RTVSPost2010Prop53
 90
        2
102
RTVSPost2010PropOp53
 70
     1
102
RTVSPost2010Prop54
  1
strokes_ogs.tif
102
RTVSPost2010PropOp54
 70
     1
102
RTVSPost2010Prop55
280
     0
102
RTVSPost2010PropOp55
 70
     1
102
RTVSPost2010Prop56
140
1.0
102
RTVSPost2010PropOp56
 70
     1
102
RTVSPost2010Prop57
140
1.0
102
RTVSPost2010PropOp57
 70
     1
  0
XRECORD
  5
242
102
{ACAD_REACTORS
330
241
102
}
330
241
100
AcDbXrecord
280
     1
102
RTVSPropertyOp0
 70
     0
102
RTVSPropertyOp1
 70
     0
102
RTVSPropertyOp2
 70
     0
102
RTVSPropertyOp3
 70
     0
102
RTVSPropertyOp4
 70
     0
102
RTVSPropertyOp5
 70
     0
102
RTVSPropertyOp6
 70
     0
102
RTVSPropertyOp7
 70
     0
102
RTVSPropertyOp8
 70
     0
102
RTVSPropertyOp9
 70
     0
102
RTVSPropertyOp10
 70
     0
102
RTVSPropertyOp11
 70
     0
102
RTVSPropertyOp12
 70
     0
102
RTVSPropertyOp13
 70
     0
102
RTVSPropertyOp14
 70
     2
102
RTVSPropertyOp15
 70
     0
102
RTVSPropertyOp16
 70
     0
102
RTVSPropertyOp17
 70
     0
102
RTVSPropertyOp18
 70
     0
102
RTVSPropertyOp19
 70
     0
102
RTVSPropertyOp20
 70
     0
102
RTVSPropertyOp21
 70
     0
102
RTVSPropertyOp22
 70
     0
102
RTVSPropertyOp23
 70
     0
102
RTVSPropertyOp24
 70
     0
102
RTVSPropertyOp25
 70
     0
102
RTVSPropertyOp26
 70
     0
102
RTVSPropertyOp27
 70
     0
102
RTVSPropertyOp28
 70
     0
102
RTVSPropertyOp29
 70
     0
102
RTVSPropertyOp30
 70
     0
102
RTVSPropertyOp31
 70
     0
102
RTVSPropertyOp32
 70
     0
102
RTVSPropertyOp33
 70
     0
102
RTVSPropertyOp34
 70
     0
102
RTVSPropertyOp35
 70
     0
102
RTVSPropertyOp36
 70
     0
102
RTVSPropertyOp37
 70
     0
102
RTVSPropertyOp38
 70
     0
102
RTVSPropertyOp39
 70
     0
102
RTVSPropertyOp40
 70
     0
102
RTVSPropertyOp41
 70
     0
102
RTVSPropertyOp42
 70
     0
102
RTVSPropertyOp43
 70
     0
102
RTVSPropertyOp44
 70
     0
102
RTVSPropertyOp45
 70
     0
102
RTVSPropertyOp46
 70
     0
102
RTVSPropertyOp47
 70
     0
102
RTVSPropertyOp48
 70
     0
102
RTVSPropertyOp49
 70
     0
102
RTVSPropertyOp50
 70
     0
102
RTVSPropertyOp51
 70
     0
102
RTVSPropertyOp52
 70
     0
102
RTVSPropertyOp53
 70
     0
102
RTVSPropertyOp54
 70
     0
102
RTVSPropertyOp55
 70
     0
102
RTVSPropertyOp56
 70
     0
102
RTVSPropertyOp57
 70
     0
102
RTVSPost2010Prop28
280
     0
102
RTVSPost2010PropOp28
 70
     0
102
RTVSPost2010Prop29
280
     1
102
RTVSPost2010PropOp29
 70
     0
102
RTVSPost2010Prop30
280
     1
102
RTVSPost2010PropOp30
 70
     0
102
RTVSPost2010Prop31
280
     0
102
RTVSPost2010PropOp31
 70
     0
102
RTVSPost2010Prop32
280
     0
102
RTVSPost2010PropOp32
 70
     0
102
RTVSPost2010Prop33
280
     0
102
RTVSPost2010PropOp33
 70
     0
102
RTVSPost2010Prop34
280
     0
102
RTVSPost2010PropOp34
 70
     0
102
RTVSPost2010Prop35
280
     0
102
RTVSPost2010PropOp35
 70
     0
102
RTVSPost2010Prop36
280
     0
102
RTVSPost2010PropOp36
 70
     0
102
RTVSPost2010Prop37
 90
       50
102
RTVSPost2010PropOp37
 70
     0
102
RTVSPost2010Prop38
140
0.0
102
RTVSPost2010PropOp38
 70
     0
102
RTVSPost2010Prop39
140
1.0
102
RTVSPost2010PropOp39
 70
     0
102
RTVSPost2010Prop40
 90
        0
102
RTVSPost2010PropOp40
 70
     0
102
RTVSPost2010Prop41ColorIndex
 90
       18
102
RTVSPost2010Prop41ColorRGB
 90
        0
102
RTVSPost2010PropOp41
 70
     0
102
RTVSPost2010Prop42
 90
       50
102
RTVSPost2010PropOp42
 70
     0
102
RTVSPost2010Prop43
 90
        3
102
RTVSPost2010PropOp43
 70
     0
102
RTVSPost2010Prop44ColorIndex
 90
        5
102
RTVSPost2010Prop44ColorRGB
 90
      255
102
RTVSPost2010PropOp44
 70
     0
102
RTVSPost2010Prop45
280
     0
102
RTVSPost2010PropOp45
 70
     0
102
RTVSPost2010Prop46
 90
       50
102
RTVSPost2010PropOp46
 70
     0
102
RTVSPost2010Prop47
 90
       50
102
RTVSPost2010PropOp47
 70
     0
102
RTVSPost2010Prop48
 90
       50
102
RTVSPost2010PropOp48
 70
     0
102
RTVSPost2010Prop49
280
     0
102
RTVSPost2010PropOp49
 70
     0
102
RTVSPost2010Prop50
 90
       50
102
RTVSPost2010PropOp50
 70
     0
102
RTVSPost2010Prop51ColorIndex
 90
      256
102
RTVSPost2010Prop51ColorRGB
 90
-16777216
102
RTVSPost2010PropOp51
 70
     0
102
RTVSPost2010Prop52
140
1.0
102
RTVSPost2010PropOp52
 70
     0
102
RTVSPost2010Prop53
 90
        2
102
RTVSPost2010PropOp53
 70
     0
102
RTVSPost2010Prop54
  1
strokes_ogs.tif
102
RTVSPost2010PropOp54
 70
     0
102
RTVSPost2010Prop55
280
     0
102
RTVSPost2010PropOp55
 70
     0
102
RTVSPost2010Prop56
140
1.0
102
RTVSPost2010PropOp56
 70
     0
102
RTVSPost2010Prop57
140
1.0
102
RTVSPost2010PropOp57
 70
     0
  0
XRECORD
  5
230
102
{ACAD_REACTORS
330
22F
102
}
330
22F
100
AcDbXrecord
280
     1
102
RTVSPropertyOp0
 70
     1
102
RTVSPropertyOp1
 70
     1
102
RTVSPropertyOp2
 70
     1
102
RTVSPropertyOp3
 70
     1
102
RTVSPropertyOp4
 70
     1
102
RTVSPropertyOp5
 70
     1
102
RTVSPropertyOp6
 70
     1
102
RTVSPropertyOp7
 70
     1
102
RTVSPropertyOp8
 70
     1
102
RTVSPropertyOp9
 70
     1
102
RTVSPropertyOp10
 70
     1
102
RTVSPropertyOp11
 70
     1
102
RTVSPropertyOp12
 70
     1
102
RTVSPropertyOp13
 70
     1
102
RTVSPropertyOp14
 70
     1
102
RTVSPropertyOp15
 70
     1
102
RTVSPropertyOp16
 70
     1
102
RTVSPropertyOp17
 70
     1
102
RTVSPropertyOp18
 70
     1
102
RTVSPropertyOp19
 70
     1
102
RTVSPropertyOp20
 70
     1
102
RTVSPropertyOp21
 70
     1
102
RTVSPropertyOp22
 70
     1
102
RTVSPropertyOp23
 70
     1
102
RTVSPropertyOp24
 70
     1
102
RTVSPropertyOp25
 70
     1
102
RTVSPropertyOp26
 70
     1
102
RTVSPropertyOp27
 70
     1
102
RTVSPropertyOp28
 70
     1
102
RTVSPropertyOp29
 70
     1
102
RTVSPropertyOp30
 70
     1
102
RTVSPropertyOp31
 70
     1
102
RTVSPropertyOp32
 70
     1
102
RTVSPropertyOp33
 70
     1
102
RTVSPropertyOp34
 70
     1
102
RTVSPropertyOp35
 70
     1
102
RTVSPropertyOp36
 70
     1
102
RTVSPropertyOp37
 70
     1
102
RTVSPropertyOp38
 70
     1
102
RTVSPropertyOp39
 70
     1
102
RTVSPropertyOp40
 70
     1
102
RTVSPropertyOp41
 70
     1
102
RTVSPropertyOp42
 70
     1
102
RTVSPropertyOp43
 70
     1
102
RTVSPropertyOp44
 70
     1
102
RTVSPropertyOp45
 70
     1
102
RTVSPropertyOp46
 70
     1
102
RTVSPropertyOp47
 70
     1
102
RTVSPropertyOp48
 70
     1
102
RTVSPropertyOp49
 70
     1
102
RTVSPropertyOp50
 70
     1
102
RTVSPropertyOp51
 70
     0
102
RTVSPropertyOp52
 70
     0
102
RTVSPropertyOp53
 70
     1
102
RTVSPropertyOp54
 70
     1
102
RTVSPropertyOp55
 70
     1
102
RTVSPropertyOp56
 70
     1
102
RTVSPropertyOp57
 70
     1
102
RTVSPost2010Prop28
280
     0
102
RTVSPost2010PropOp28
 70
     1
102
RTVSPost2010Prop29
280
     1
102
RTVSPost2010PropOp29
 70
     1
102
RTVSPost2010Prop30
280
     1
102
RTVSPost2010PropOp30
 70
     1
102
RTVSPost2010Prop31
280
     0
102
RTVSPost2010PropOp31
 70
     1
102
RTVSPost2010Prop32
280
     0
102
RTVSPost2010PropOp32
 70
     1
102
RTVSPost2010Prop33
280
     0
102
RTVSPost2010PropOp33
 70
     1
102
RTVSPost2010Prop34
280
     0
102
RTVSPost2010PropOp34
 70
     1
102
RTVSPost2010Prop35
280
     0
102
RTVSPost2010PropOp35
 70
     1
102
RTVSPost2010Prop36
280
     0
102
RTVSPost2010PropOp36
 70
     1
102
RTVSPost2010Prop37
 90
       50
102
RTVSPost2010PropOp37
 70
     1
102
RTVSPost2010Prop38
140
0.0
102
RTVSPost2010PropOp38
 70
     1
102
RTVSPost2010Prop39
140
1.0
102
RTVSPost2010PropOp39
 70
     1
102
RTVSPost2010Prop40
 90
        0
102
RTVSPost2010PropOp40
 70
     1
102
RTVSPost2010Prop41ColorIndex
 90
       18
102
RTVSPost2010Prop41ColorRGB
 90
        0
102
RTVSPost2010PropOp41
 70
     1
102
RTVSPost2010Prop42
 90
       50
102
RTVSPost2010PropOp42
 70
     1
102
RTVSPost2010Prop43
 90
        3
102
RTVSPost2010PropOp43
 70
     1
102
RTVSPost2010Prop44ColorIndex
 90
        5
102
RTVSPost2010Prop44ColorRGB
 90
      255
102
RTVSPost2010PropOp44
 70
     1
102
RTVSPost2010Prop45
280
     0
102
RTVSPost2010PropOp45
 70
     1
102
RTVSPost2010Prop46
 90
       50
102
RTVSPost2010PropOp46
 70
     1
102
RTVSPost2010Prop47
 90
       50
102
RTVSPost2010PropOp47
 70
     1
102
RTVSPost2010Prop48
 90
       50
102
RTVSPost2010PropOp48
 70
     1
102
RTVSPost2010Prop49
280
     0
102
RTVSPost2010PropOp49
 70
     1
102
RTVSPost2010Prop50
 90
       50
102
RTVSPost2010PropOp50
 70
     1
102
RTVSPost2010Prop51ColorIndex
 90
      256
102
RTVSPost2010Prop51ColorRGB
 90
-16777216
102
RTVSPost2010PropOp51
 70
     0
102
RTVSPost2010Prop52
140
1.0
102
RTVSPost2010PropOp52
 70
     0
102
RTVSPost2010Prop53
 90
        2
102
RTVSPost2010PropOp53
 70
     1
102
RTVSPost2010Prop54
  1
strokes_ogs.tif
102
RTVSPost2010PropOp54
 70
     1
102
RTVSPost2010Prop55
280
     0
102
RTVSPost2010PropOp55
 70
     1
102
RTVSPost2010Prop56
140
1.0
102
RTVSPost2010PropOp56
 70
     1
102
RTVSPost2010Prop57
140
1.0
102
RTVSPost2010PropOp57
 70
     1
  0
XRECORD
  5
24E
102
{ACAD_REACTORS
330
24D
102
}
330
24D
100
AcDbXrecord
280
     1
102
RTVSPropertyOp0
 70
     1
102
RTVSPropertyOp1
 70
     1
102
RTVSPropertyOp2
 70
     1
102
RTVSPropertyOp3
 70
     1
102
RTVSPropertyOp4
 70
     1
102
RTVSPropertyOp5
 70
     1
102
RTVSPropertyOp6
 70
     1
102
RTVSPropertyOp7
 70
     1
102
RTVSPropertyOp8
 70
     1
102
RTVSPropertyOp9
 70
     1
102
RTVSPropertyOp10
 70
     1
102
RTVSPropertyOp11
 70
     1
102
RTVSPropertyOp12
 70
     1
102
RTVSPropertyOp13
 70
     1
102
RTVSPropertyOp14
 70
     1
102
RTVSPropertyOp15
 70
     1
102
RTVSPropertyOp16
 70
     1
102
RTVSPropertyOp17
 70
     1
102
RTVSPropertyOp18
 70
     1
102
RTVSPropertyOp19
 70
     1
102
RTVSPropertyOp20
 70
     1
102
RTVSPropertyOp21
 70
     1
102
RTVSPropertyOp22
 70
     1
102
RTVSPropertyOp23
 70
     1
102
RTVSPropertyOp24
 70
     1
102
RTVSPropertyOp25
 70
     1
102
RTVSPropertyOp26
 70
     1
102
RTVSPropertyOp27
 70
     1
102
RTVSPropertyOp28
 70
     1
102
RTVSPropertyOp29
 70
     1
102
RTVSPropertyOp30
 70
     1
102
RTVSPropertyOp31
 70
     1
102
RTVSPropertyOp32
 70
     1
102
RTVSPropertyOp33
 70
     1
102
RTVSPropertyOp34
 70
     1
102
RTVSPropertyOp35
 70
     1
102
RTVSPropertyOp36
 70
     1
102
RTVSPropertyOp37
 70
     1
102
RTVSPropertyOp38
 70
     1
102
RTVSPropertyOp39
 70
     1
102
RTVSPropertyOp40
 70
     1
102
RTVSPropertyOp41
 70
     1
102
RTVSPropertyOp42
 70
     1
102
RTVSPropertyOp43
 70
     1
102
RTVSPropertyOp44
 70
     1
102
RTVSPropertyOp45
 70
     1
102
RTVSPropertyOp46
 70
     1
102
RTVSPropertyOp47
 70
     1
102
RTVSPropertyOp48
 70
     1
102
RTVSPropertyOp49
 70
     1
102
RTVSPropertyOp50
 70
     1
102
RTVSPropertyOp51
 70
     0
102
RTVSPropertyOp52
 70
     0
102
RTVSPropertyOp53
 70
     1
102
RTVSPropertyOp54
 70
     1
102
RTVSPropertyOp55
 70
     1
102
RTVSPropertyOp56
 70
     1
102
RTVSPropertyOp57
 70
     1
102
RTVSPost2010Prop28
280
     0
102
RTVSPost2010PropOp28
 70
     1
102
RTVSPost2010Prop29
280
     1
102
RTVSPost2010PropOp29
 70
     1
102
RTVSPost2010Prop30
280
     1
102
RTVSPost2010PropOp30
 70
     1
102
RTVSPost2010Prop31
280
     0
102
RTVSPost2010PropOp31
 70
     1
102
RTVSPost2010Prop32
280
     0
102
RTVSPost2010PropOp32
 70
     1
102
RTVSPost2010Prop33
280
     0
102
RTVSPost2010PropOp33
 70
     1
102
RTVSPost2010Prop34
280
     0
102
RTVSPost2010PropOp34
 70
     1
102
RTVSPost2010Prop35
280
     0
102
RTVSPost2010PropOp35
 70
     1
102
RTVSPost2010Prop36
280
     0
102
RTVSPost2010PropOp36
 70
     1
102
RTVSPost2010Prop37
 90
       50
102
RTVSPost2010PropOp37
 70
     1
102
RTVSPost2010Prop38
140
0.0
102
RTVSPost2010PropOp38
 70
     1
102
RTVSPost2010Prop39
140
1.0
102
RTVSPost2010PropOp39
 70
     1
102
RTVSPost2010Prop40
 90
        0
102
RTVSPost2010PropOp40
 70
     1
102
RTVSPost2010Prop41ColorIndex
 90
       18
102
RTVSPost2010Prop41ColorRGB
 90
        0
102
RTVSPost2010PropOp41
 70
     1
102
RTVSPost2010Prop42
 90
       50
102
RTVSPost2010PropOp42
 70
     1
102
RTVSPost2010Prop43
 90
        3
102
RTVSPost2010PropOp43
 70
     1
102
RTVSPost2010Prop44ColorIndex
 90
        5
102
RTVSPost2010Prop44ColorRGB
 90
      255
102
RTVSPost2010PropOp44
 70
     1
102
RTVSPost2010Prop45
280
     0
102
RTVSPost2010PropOp45
 70
     1
102
RTVSPost2010Prop46
 90
       50
102
RTVSPost2010PropOp46
 70
     1
102
RTVSPost2010Prop47
 90
       50
102
RTVSPost2010PropOp47
 70
     1
102
RTVSPost2010Prop48
 90
       50
102
RTVSPost2010PropOp48
 70
     1
102
RTVSPost2010Prop49
280
     0
102
RTVSPost2010PropOp49
 70
     1
102
RTVSPost2010Prop50
 90
       50
102
RTVSPost2010PropOp50
 70
     1
102
RTVSPost2010Prop51ColorIndex
 90
      256
102
RTVSPost2010Prop51ColorRGB
 90
-16777216
102
RTVSPost2010PropOp51
 70
     0
102
RTVSPost2010Prop52
140
1.0
102
RTVSPost2010PropOp52
 70
     0
102
RTVSPost2010Prop53
 90
        2
102
RTVSPost2010PropOp53
 70
     1
102
RTVSPost2010Prop54
  1
strokes_ogs.tif
102
RTVSPost2010PropOp54
 70
     1
102
RTVSPost2010Prop55
280
     0
102
RTVSPost2010PropOp55
 70
     1
102
RTVSPost2010Prop56
140
1.0
102
RTVSPost2010PropOp56
 70
     1
102
RTVSPost2010Prop57
140
1.0
102
RTVSPost2010PropOp57
 70
     1
  0
XRECORD
  5
24C
102
{ACAD_REACTORS
330
24B
102
}
330
24B
100
AcDbXrecord
280
     1
102
RTVSPropertyOp0
 70
     1
102
RTVSPropertyOp1
 70
     1
102
RTVSPropertyOp2
 70
     1
102
RTVSPropertyOp3
 70
     1
102
RTVSPropertyOp4
 70
     1
102
RTVSPropertyOp5
 70
     1
102
RTVSPropertyOp6
 70
     1
102
RTVSPropertyOp7
 70
     1
102
RTVSPropertyOp8
 70
     1
102
RTVSPropertyOp9
 70
     1
102
RTVSPropertyOp10
 70
     1
102
RTVSPropertyOp11
 70
     1
102
RTVSPropertyOp12
 70
     1
102
RTVSPropertyOp13
 70
     1
102
RTVSPropertyOp14
 70
     1
102
RTVSPropertyOp15
 70
     1
102
RTVSPropertyOp16
 70
     1
102
RTVSPropertyOp17
 70
     1
102
RTVSPropertyOp18
 70
     1
102
RTVSPropertyOp19
 70
     1
102
RTVSPropertyOp20
 70
     1
102
RTVSPropertyOp21
 70
     1
102
RTVSPropertyOp22
 70
     1
102
RTVSPropertyOp23
 70
     1
102
RTVSPropertyOp24
 70
     1
102
RTVSPropertyOp25
 70
     1
102
RTVSPropertyOp26
 70
     1
102
RTVSPropertyOp27
 70
     1
102
RTVSPropertyOp28
 70
     1
102
RTVSPropertyOp29
 70
     1
102
RTVSPropertyOp30
 70
     1
102
RTVSPropertyOp31
 70
     1
102
RTVSPropertyOp32
 70
     1
102
RTVSPropertyOp33
 70
     1
102
RTVSPropertyOp34
 70
     1
102
RTVSPropertyOp35
 70
     1
102
RTVSPropertyOp36
 70
     1
102
RTVSPropertyOp37
 70
     1
102
RTVSPropertyOp38
 70
     1
102
RTVSPropertyOp39
 70
     1
102
RTVSPropertyOp40
 70
     1
102
RTVSPropertyOp41
 70
     1
102
RTVSPropertyOp42
 70
     1
102
RTVSPropertyOp43
 70
     1
102
RTVSPropertyOp44
 70
     1
102
RTVSPropertyOp45
 70
     1
102
RTVSPropertyOp46
 70
     1
102
RTVSPropertyOp47
 70
     1
102
RTVSPropertyOp48
 70
     1
102
RTVSPropertyOp49
 70
     1
102
RTVSPropertyOp50
 70
     1
102
RTVSPropertyOp51
 70
     0
102
RTVSPropertyOp52
 70
     0
102
RTVSPropertyOp53
 70
     1
102
RTVSPropertyOp54
 70
     1
102
RTVSPropertyOp55
 70
     1
102
RTVSPropertyOp56
 70
     1
102
RTVSPropertyOp57
 70
     1
102
RTVSPost2010Prop28
280
     0
102
RTVSPost2010PropOp28
 70
     1
102
RTVSPost2010Prop29
280
     1
102
RTVSPost2010PropOp29
 70
     1
102
RTVSPost2010Prop30
280
     1
102
RTVSPost2010PropOp30
 70
     1
102
RTVSPost2010Prop31
280
     0
102
RTVSPost2010PropOp31
 70
     1
102
RTVSPost2010Prop32
280
     0
102
RTVSPost2010PropOp32
 70
     1
102
RTVSPost2010Prop33
280
     0
102
RTVSPost2010PropOp33
 70
     1
102
RTVSPost2010Prop34
280
     0
102
RTVSPost2010PropOp34
 70
     1
102
RTVSPost2010Prop35
280
     0
102
RTVSPost2010PropOp35
 70
     1
102
RTVSPost2010Prop36
280
     0
102
RTVSPost2010PropOp36
 70
     1
102
RTVSPost2010Prop37
 90
       50
102
RTVSPost2010PropOp37
 70
     1
102
RTVSPost2010Prop38
140
0.0
102
RTVSPost2010PropOp38
 70
     1
102
RTVSPost2010Prop39
140
1.0
102
RTVSPost2010PropOp39
 70
     1
102
RTVSPost2010Prop40
 90
        0
102
RTVSPost2010PropOp40
 70
     1
102
RTVSPost2010Prop41ColorIndex
 90
       18
102
RTVSPost2010Prop41ColorRGB
 90
        0
102
RTVSPost2010PropOp41
 70
     1
102
RTVSPost2010Prop42
 90
       50
102
RTVSPost2010PropOp42
 70
     1
102
RTVSPost2010Prop43
 90
        3
102
RTVSPost2010PropOp43
 70
     1
102
RTVSPost2010Prop44ColorIndex
 90
        5
102
RTVSPost2010Prop44ColorRGB
 90
      255
102
RTVSPost2010PropOp44
 70
     1
102
RTVSPost2010Prop45
280
     0
102
RTVSPost2010PropOp45
 70
     1
102
RTVSPost2010Prop46
 90
       50
102
RTVSPost2010PropOp46
 70
     1
102
RTVSPost2010Prop47
 90
       50
102
RTVSPost2010PropOp47
 70
     1
102
RTVSPost2010Prop48
 90
       50
102
RTVSPost2010PropOp48
 70
     1
102
RTVSPost2010Prop49
280
     0
102
RTVSPost2010PropOp49
 70
     1
102
RTVSPost2010Prop50
 90
       50
102
RTVSPost2010PropOp50
 70
     1
102
RTVSPost2010Prop51ColorIndex
 90
      256
102
RTVSPost2010Prop51ColorRGB
 90
-16777216
102
RTVSPost2010PropOp51
 70
     0
102
RTVSPost2010Prop52
140
1.0
102
RTVSPost2010PropOp52
 70
     0
102
RTVSPost2010Prop53
 90
        2
102
RTVSPost2010PropOp53
 70
     1
102
RTVSPost2010Prop54
  1
strokes_ogs.tif
102
RTVSPost2010PropOp54
 70
     1
102
RTVSPost2010Prop55
280
     0
102
RTVSPost2010PropOp55
 70
     1
102
RTVSPost2010Prop56
140
1.0
102
RTVSPost2010PropOp56
 70
     1
102
RTVSPost2010Prop57
140
1.0
102
RTVSPost2010PropOp57
 70
     1
  0
XRECORD
  5
246
102
{ACAD_REACTORS
330
245
102
}
330
245
100
AcDbXrecord
280
     1
102
RTVSPropertyOp0
 70
     1
102
RTVSPropertyOp1
 70
     1
102
RTVSPropertyOp2
 70
     1
102
RTVSPropertyOp3
 70
     1
102
RTVSPropertyOp4
 70
     1
102
RTVSPropertyOp5
 70
     1
102
RTVSPropertyOp6
 70
     1
102
RTVSPropertyOp7
 70
     1
102
RTVSPropertyOp8
 70
     1
102
RTVSPropertyOp9
 70
     1
102
RTVSPropertyOp10
 70
     1
102
RTVSPropertyOp11
 70
     1
102
RTVSPropertyOp12
 70
     1
102
RTVSPropertyOp13
 70
     1
102
RTVSPropertyOp14
 70
     1
102
RTVSPropertyOp15
 70
     1
102
RTVSPropertyOp16
 70
     1
102
RTVSPropertyOp17
 70
     1
102
RTVSPropertyOp18
 70
     1
102
RTVSPropertyOp19
 70
     1
102
RTVSPropertyOp20
 70
     1
102
RTVSPropertyOp21
 70
     1
102
RTVSPropertyOp22
 70
     1
102
RTVSPropertyOp23
 70
     1
102
RTVSPropertyOp24
 70
     1
102
RTVSPropertyOp25
 70
     1
102
RTVSPropertyOp26
 70
     1
102
RTVSPropertyOp27
 70
     1
102
RTVSPropertyOp28
 70
     1
102
RTVSPropertyOp29
 70
     1
102
RTVSPropertyOp30
 70
     1
102
RTVSPropertyOp31
 70
     1
102
RTVSPropertyOp32
 70
     1
102
RTVSPropertyOp33
 70
     1
102
RTVSPropertyOp34
 70
     1
102
RTVSPropertyOp35
 70
     1
102
RTVSPropertyOp36
 70
     1
102
RTVSPropertyOp37
 70
     1
102
RTVSPropertyOp38
 70
     1
102
RTVSPropertyOp39
 70
     1
102
RTVSPropertyOp40
 70
     1
102
RTVSPropertyOp41
 70
     1
102
RTVSPropertyOp42
 70
     1
102
RTVSPropertyOp43
 70
     1
102
RTVSPropertyOp44
 70
     1
102
RTVSPropertyOp45
 70
     1
102
RTVSPropertyOp46
 70
     1
102
RTVSPropertyOp47
 70
     1
102
RTVSPropertyOp48
 70
     1
102
RTVSPropertyOp49
 70
     1
102
RTVSPropertyOp50
 70
     1
102
RTVSPropertyOp51
 70
     0
102
RTVSPropertyOp52
 70
     0
102
RTVSPropertyOp53
 70
     1
102
RTVSPropertyOp54
 70
     1
102
RTVSPropertyOp55
 70
     1
102
RTVSPropertyOp56
 70
     1
102
RTVSPropertyOp57
 70
     1
102
RTVSPost2010Prop28
280
     0
102
RTVSPost2010PropOp28
 70
     1
102
RTVSPost2010Prop29
280
     1
102
RTVSPost2010PropOp29
 70
     1
102
RTVSPost2010Prop30
280
     1
102
RTVSPost2010PropOp30
 70
     1
102
RTVSPost2010Prop31
280
     0
102
RTVSPost2010PropOp31
 70
     1
102
RTVSPost2010Prop32
280
     0
102
RTVSPost2010PropOp32
 70
     1
102
RTVSPost2010Prop33
280
     0
102
RTVSPost2010PropOp33
 70
     1
102
RTVSPost2010Prop34
280
     0
102
RTVSPost2010PropOp34
 70
     1
102
RTVSPost2010Prop35
280
     0
102
RTVSPost2010PropOp35
 70
     1
102
RTVSPost2010Prop36
280
     0
102
RTVSPost2010PropOp36
 70
     1
102
RTVSPost2010Prop37
 90
       50
102
RTVSPost2010PropOp37
 70
     1
102
RTVSPost2010Prop38
140
0.0
102
RTVSPost2010PropOp38
 70
     1
102
RTVSPost2010Prop39
140
1.0
102
RTVSPost2010PropOp39
 70
     1
102
RTVSPost2010Prop40
 90
        0
102
RTVSPost2010PropOp40
 70
     1
102
RTVSPost2010Prop41ColorIndex
 90
       18
102
RTVSPost2010Prop41ColorRGB
 90
        0
102
RTVSPost2010PropOp41
 70
     1
102
RTVSPost2010Prop42
 90
       50
102
RTVSPost2010PropOp42
 70
     1
102
RTVSPost2010Prop43
 90
        3
102
RTVSPost2010PropOp43
 70
     1
102
RTVSPost2010Prop44ColorIndex
 90
        5
102
RTVSPost2010Prop44ColorRGB
 90
      255
102
RTVSPost2010PropOp44
 70
     1
102
RTVSPost2010Prop45
280
     0
102
RTVSPost2010PropOp45
 70
     1
102
RTVSPost2010Prop46
 90
       50
102
RTVSPost2010PropOp46
 70
     1
102
RTVSPost2010Prop47
 90
       50
102
RTVSPost2010PropOp47
 70
     1
102
RTVSPost2010Prop48
 90
       50
102
RTVSPost2010PropOp48
 70
     1
102
RTVSPost2010Prop49
280
     0
102
RTVSPost2010PropOp49
 70
     1
102
RTVSPost2010Prop50
 90
       50
102
RTVSPost2010PropOp50
 70
     1
102
RTVSPost2010Prop51ColorIndex
 90
      256
102
RTVSPost2010Prop51ColorRGB
 90
-16777216
102
RTVSPost2010PropOp51
 70
     0
102
RTVSPost2010Prop52
140
1.0
102
RTVSPost2010PropOp52
 70
     0
102
RTVSPost2010Prop53
 90
        2
102
RTVSPost2010PropOp53
 70
     1
102
RTVSPost2010Prop54
  1
strokes_ogs.tif
102
RTVSPost2010PropOp54
 70
     1
102
RTVSPost2010Prop55
280
     0
102
RTVSPost2010PropOp55
 70
     1
102
RTVSPost2010Prop56
140
1.0
102
RTVSPost2010PropOp56
 70
     1
102
RTVSPost2010Prop57
140
1.0
102
RTVSPost2010PropOp57
 70
     1
  0
XRECORD
  5
248
102
{ACAD_REACTORS
330
247
102
}
330
247
100
AcDbXrecord
280
     1
102
RTVSPropertyOp0
 70
     1
102
RTVSPropertyOp1
 70
     1
102
RTVSPropertyOp2
 70
     1
102
RTVSPropertyOp3
 70
     1
102
RTVSPropertyOp4
 70
     1
102
RTVSPropertyOp5
 70
     1
102
RTVSPropertyOp6
 70
     1
102
RTVSPropertyOp7
 70
     1
102
RTVSPropertyOp8
 70
     1
102
RTVSPropertyOp9
 70
     1
102
RTVSPropertyOp10
 70
     1
102
RTVSPropertyOp11
 70
     1
102
RTVSPropertyOp12
 70
     1
102
RTVSPropertyOp13
 70
     1
102
RTVSPropertyOp14
 70
     1
102
RTVSPropertyOp15
 70
     1
102
RTVSPropertyOp16
 70
     1
102
RTVSPropertyOp17
 70
     1
102
RTVSPropertyOp18
 70
     1
102
RTVSPropertyOp19
 70
     1
102
RTVSPropertyOp20
 70
     1
102
RTVSPropertyOp21
 70
     1
102
RTVSPropertyOp22
 70
     1
102
RTVSPropertyOp23
 70
     1
102
RTVSPropertyOp24
 70
     1
102
RTVSPropertyOp25
 70
     1
102
RTVSPropertyOp26
 70
     1
102
RTVSPropertyOp27
 70
     1
102
RTVSPropertyOp28
 70
     1
102
RTVSPropertyOp29
 70
     1
102
RTVSPropertyOp30
 70
     1
102
RTVSPropertyOp31
 70
     1
102
RTVSPropertyOp32
 70
     1
102
RTVSPropertyOp33
 70
     1
102
RTVSPropertyOp34
 70
     1
102
RTVSPropertyOp35
 70
     1
102
RTVSPropertyOp36
 70
     1
102
RTVSPropertyOp37
 70
     1
102
RTVSPropertyOp38
 70
     1
102
RTVSPropertyOp39
 70
     1
102
RTVSPropertyOp40
 70
     1
102
RTVSPropertyOp41
 70
     1
102
RTVSPropertyOp42
 70
     1
102
RTVSPropertyOp43
 70
     1
102
RTVSPropertyOp44
 70
     1
102
RTVSPropertyOp45
 70
     1
102
RTVSPropertyOp46
 70
     1
102
RTVSPropertyOp47
 70
     1
102
RTVSPropertyOp48
 70
     1
102
RTVSPropertyOp49
 70
     1
102
RTVSPropertyOp50
 70
     1
102
RTVSPropertyOp51
 70
     0
102
RTVSPropertyOp52
 70
     0
102
RTVSPropertyOp53
 70
     1
102
RTVSPropertyOp54
 70
     1
102
RTVSPropertyOp55
 70
     1
102
RTVSPropertyOp56
 70
     1
102
RTVSPropertyOp57
 70
     1
102
RTVSPost2010Prop28
280
     0
102
RTVSPost2010PropOp28
 70
     1
102
RTVSPost2010Prop29
280
     1
102
RTVSPost2010PropOp29
 70
     1
102
RTVSPost2010Prop30
280
     1
102
RTVSPost2010PropOp30
 70
     1
102
RTVSPost2010Prop31
280
     0
102
RTVSPost2010PropOp31
 70
     1
102
RTVSPost2010Prop32
280
     0
102
RTVSPost2010PropOp32
 70
     1
102
RTVSPost2010Prop33
280
     0
102
RTVSPost2010PropOp33
 70
     1
102
RTVSPost2010Prop34
280
     0
102
RTVSPost2010PropOp34
 70
     1
102
RTVSPost2010Prop35
280
     0
102
RTVSPost2010PropOp35
 70
     1
102
RTVSPost2010Prop36
280
     0
102
RTVSPost2010PropOp36
 70
     1
102
RTVSPost2010Prop37
 90
       50
102
RTVSPost2010PropOp37
 70
     1
102
RTVSPost2010Prop38
140
0.0
102
RTVSPost2010PropOp38
 70
     1
102
RTVSPost2010Prop39
140
1.0
102
RTVSPost2010PropOp39
 70
     1
102
RTVSPost2010Prop40
 90
        0
102
RTVSPost2010PropOp40
 70
     1
102
RTVSPost2010Prop41ColorIndex
 90
       18
102
RTVSPost2010Prop41ColorRGB
 90
        0
102
RTVSPost2010PropOp41
 70
     1
102
RTVSPost2010Prop42
 90
       50
102
RTVSPost2010PropOp42
 70
     1
102
RTVSPost2010Prop43
 90
        3
102
RTVSPost2010PropOp43
 70
     1
102
RTVSPost2010Prop44ColorIndex
 90
        5
102
RTVSPost2010Prop44ColorRGB
 90
      255
102
RTVSPost2010PropOp44
 70
     1
102
RTVSPost2010Prop45
280
     0
102
RTVSPost2010PropOp45
 70
     1
102
RTVSPost2010Prop46
 90
       50
102
RTVSPost2010PropOp46
 70
     1
102
RTVSPost2010Prop47
 90
       50
102
RTVSPost2010PropOp47
 70
     1
102
RTVSPost2010Prop48
 90
       50
102
RTVSPost2010PropOp48
 70
     1
102
RTVSPost2010Prop49
280
     0
102
RTVSPost2010PropOp49
 70
     1
102
RTVSPost2010Prop50
 90
       50
102
RTVSPost2010PropOp50
 70
     1
102
RTVSPost2010Prop51ColorIndex
 90
      256
102
RTVSPost2010Prop51ColorRGB
 90
-16777216
102
RTVSPost2010PropOp51
 70
     0
102
RTVSPost2010Prop52
140
1.0
102
RTVSPost2010PropOp52
 70
     0
102
RTVSPost2010Prop53
 90
        2
102
RTVSPost2010PropOp53
 70
     1
102
RTVSPost2010Prop54
  1
strokes_ogs.tif
102
RTVSPost2010PropOp54
 70
     1
102
RTVSPost2010Prop55
280
     0
102
RTVSPost2010PropOp55
 70
     1
102
RTVSPost2010Prop56
140
1.0
102
RTVSPost2010PropOp56
 70
     1
102
RTVSPost2010Prop57
140
1.0
102
RTVSPost2010PropOp57
 70
     1
  0
XRECORD
  5
238
102
{ACAD_REACTORS
330
237
102
}
330
237
100
AcDbXrecord
280
     1
102
RTVSPropertyOp0
 70
     1
102
RTVSPropertyOp1
 70
     1
102
RTVSPropertyOp2
 70
     1
102
RTVSPropertyOp3
 70
     1
102
RTVSPropertyOp4
 70
     1
102
RTVSPropertyOp5
 70
     1
102
RTVSPropertyOp6
 70
     1
102
RTVSPropertyOp7
 70
     1
102
RTVSPropertyOp8
 70
     1
102
RTVSPropertyOp9
 70
     1
102
RTVSPropertyOp10
 70
     1
102
RTVSPropertyOp11
 70
     1
102
RTVSPropertyOp12
 70
     1
102
RTVSPropertyOp13
 70
     1
102
RTVSPropertyOp14
 70
     1
102
RTVSPropertyOp15
 70
     1
102
RTVSPropertyOp16
 70
     1
102
RTVSPropertyOp17
 70
     1
102
RTVSPropertyOp18
 70
     1
102
RTVSPropertyOp19
 70
     1
102
RTVSPropertyOp20
 70
     1
102
RTVSPropertyOp21
 70
     1
102
RTVSPropertyOp22
 70
     1
102
RTVSPropertyOp23
 70
     1
102
RTVSPropertyOp24
 70
     1
102
RTVSPropertyOp25
 70
     1
102
RTVSPropertyOp26
 70
     1
102
RTVSPropertyOp27
 70
     1
102
RTVSPropertyOp28
 70
     1
102
RTVSPropertyOp29
 70
     1
102
RTVSPropertyOp30
 70
     1
102
RTVSPropertyOp31
 70
     1
102
RTVSPropertyOp32
 70
     1
102
RTVSPropertyOp33
 70
     1
102
RTVSPropertyOp34
 70
     1
102
RTVSPropertyOp35
 70
     1
102
RTVSPropertyOp36
 70
     1
102
RTVSPropertyOp37
 70
     1
102
RTVSPropertyOp38
 70
     1
102
RTVSPropertyOp39
 70
     1
102
RTVSPropertyOp40
 70
     1
102
RTVSPropertyOp41
 70
     1
102
RTVSPropertyOp42
 70
     1
102
RTVSPropertyOp43
 70
     1
102
RTVSPropertyOp44
 70
     1
102
RTVSPropertyOp45
 70
     1
102
RTVSPropertyOp46
 70
     1
102
RTVSPropertyOp47
 70
     1
102
RTVSPropertyOp48
 70
     1
102
RTVSPropertyOp49
 70
     1
102
RTVSPropertyOp50
 70
     1
102
RTVSPropertyOp51
 70
     0
102
RTVSPropertyOp52
 70
     0
102
RTVSPropertyOp53
 70
     1
102
RTVSPropertyOp54
 70
     1
102
RTVSPropertyOp55
 70
     1
102
RTVSPropertyOp56
 70
     1
102
RTVSPropertyOp57
 70
     1
102
RTVSPost2010Prop28
280
     0
102
RTVSPost2010PropOp28
 70
     1
102
RTVSPost2010Prop29
280
     1
102
RTVSPost2010PropOp29
 70
     1
102
RTVSPost2010Prop30
280
     1
102
RTVSPost2010PropOp30
 70
     1
102
RTVSPost2010Prop31
280
     0
102
RTVSPost2010PropOp31
 70
     1
102
RTVSPost2010Prop32
280
     0
102
RTVSPost2010PropOp32
 70
     1
102
RTVSPost2010Prop33
280
     0
102
RTVSPost2010PropOp33
 70
     1
102
RTVSPost2010Prop34
280
     0
102
RTVSPost2010PropOp34
 70
     1
102
RTVSPost2010Prop35
280
     0
102
RTVSPost2010PropOp35
 70
     1
102
RTVSPost2010Prop36
280
     0
102
RTVSPost2010PropOp36
 70
     1
102
RTVSPost2010Prop37
 90
       50
102
RTVSPost2010PropOp37
 70
     1
102
RTVSPost2010Prop38
140
0.0
102
RTVSPost2010PropOp38
 70
     1
102
RTVSPost2010Prop39
140
1.0
102
RTVSPost2010PropOp39
 70
     1
102
RTVSPost2010Prop40
 90
        0
102
RTVSPost2010PropOp40
 70
     1
102
RTVSPost2010Prop41ColorIndex
 90
       18
102
RTVSPost2010Prop41ColorRGB
 90
        0
102
RTVSPost2010PropOp41
 70
     1
102
RTVSPost2010Prop42
 90
       50
102
RTVSPost2010PropOp42
 70
     1
102
RTVSPost2010Prop43
 90
        3
102
RTVSPost2010PropOp43
 70
     1
102
RTVSPost2010Prop44ColorIndex
 90
        5
102
RTVSPost2010Prop44ColorRGB
 90
      255
102
RTVSPost2010PropOp44
 70
     1
102
RTVSPost2010Prop45
280
     0
102
RTVSPost2010PropOp45
 70
     1
102
RTVSPost2010Prop46
 90
       50
102
RTVSPost2010PropOp46
 70
     1
102
RTVSPost2010Prop47
 90
       50
102
RTVSPost2010PropOp47
 70
     1
102
RTVSPost2010Prop48
 90
       50
102
RTVSPost2010PropOp48
 70
     1
102
RTVSPost2010Prop49
280
     0
102
RTVSPost2010PropOp49
 70
     1
102
RTVSPost2010Prop50
 90
       50
102
RTVSPost2010PropOp50
 70
     1
102
RTVSPost2010Prop51ColorIndex
 90
      256
102
RTVSPost2010Prop51ColorRGB
 90
-16777216
102
RTVSPost2010PropOp51
 70
     0
102
RTVSPost2010Prop52
140
1.0
102
RTVSPost2010PropOp52
 70
     0
102
RTVSPost2010Prop53
 90
        2
102
RTVSPost2010PropOp53
 70
     1
102
RTVSPost2010Prop54
  1
strokes_ogs.tif
102
RTVSPost2010PropOp54
 70
     1
102
RTVSPost2010Prop55
280
     0
102
RTVSPost2010PropOp55
 70
     1
102
RTVSPost2010Prop56
140
1.0
102
RTVSPost2010PropOp56
 70
     1
102
RTVSPost2010Prop57
140
1.0
102
RTVSPost2010PropOp57
 70
     1
  0
XRECORD
  5
22A
102
{ACAD_REACTORS
330
229
102
}
330
229
100
AcDbXrecord
280
     1
102
RTVSPropertyOp0
 70
     1
102
RTVSPropertyOp1
 70
     1
102
RTVSPropertyOp2
 70
     1
102
RTVSPropertyOp3
 70
     1
102
RTVSPropertyOp4
 70
     1
102
RTVSPropertyOp5
 70
     1
102
RTVSPropertyOp6
 70
     1
102
RTVSPropertyOp7
 70
     1
102
RTVSPropertyOp8
 70
     1
102
RTVSPropertyOp9
 70
     1
102
RTVSPropertyOp10
 70
     1
102
RTVSPropertyOp11
 70
     1
102
RTVSPropertyOp12
 70
     1
102
RTVSPropertyOp13
 70
     1
102
RTVSPropertyOp14
 70
     1
102
RTVSPropertyOp15
 70
     1
102
RTVSPropertyOp16
 70
     1
102
RTVSPropertyOp17
 70
     1
102
RTVSPropertyOp18
 70
     1
102
RTVSPropertyOp19
 70
     1
102
RTVSPropertyOp20
 70
     1
102
RTVSPropertyOp21
 70
     1
102
RTVSPropertyOp22
 70
     1
102
RTVSPropertyOp23
 70
     1
102
RTVSPropertyOp24
 70
     1
102
RTVSPropertyOp25
 70
     1
102
RTVSPropertyOp26
 70
     1
102
RTVSPropertyOp27
 70
     1
102
RTVSPropertyOp28
 70
     1
102
RTVSPropertyOp29
 70
     1
102
RTVSPropertyOp30
 70
     1
102
RTVSPropertyOp31
 70
     1
102
RTVSPropertyOp32
 70
     1
102
RTVSPropertyOp33
 70
     1
102
RTVSPropertyOp34
 70
     1
102
RTVSPropertyOp35
 70
     1
102
RTVSPropertyOp36
 70
     1
102
RTVSPropertyOp37
 70
     1
102
RTVSPropertyOp38
 70
     1
102
RTVSPropertyOp39
 70
     1
102
RTVSPropertyOp40
 70
     1
102
RTVSPropertyOp41
 70
     1
102
RTVSPropertyOp42
 70
     1
102
RTVSPropertyOp43
 70
     1
102
RTVSPropertyOp44
 70
     1
102
RTVSPropertyOp45
 70
     1
102
RTVSPropertyOp46
 70
     1
102
RTVSPropertyOp47
 70
     1
102
RTVSPropertyOp48
 70
     1
102
RTVSPropertyOp49
 70
     1
102
RTVSPropertyOp50
 70
     1
102
RTVSPropertyOp51
 70
     0
102
RTVSPropertyOp52
 70
     0
102
RTVSPropertyOp53
 70
     1
102
RTVSPropertyOp54
 70
     1
102
RTVSPropertyOp55
 70
     1
102
RTVSPropertyOp56
 70
     1
102
RTVSPropertyOp57
 70
     1
102
RTVSPost2010Prop28
280
     0
102
RTVSPost2010PropOp28
 70
     1
102
RTVSPost2010Prop29
280
     1
102
RTVSPost2010PropOp29
 70
     1
102
RTVSPost2010Prop30
280
     1
102
RTVSPost2010PropOp30
 70
     1
102
RTVSPost2010Prop31
280
     0
102
RTVSPost2010PropOp31
 70
     1
102
RTVSPost2010Prop32
280
     0
102
RTVSPost2010PropOp32
 70
     1
102
RTVSPost2010Prop33
280
     0
102
RTVSPost2010PropOp33
 70
     1
102
RTVSPost2010Prop34
280
     0
102
RTVSPost2010PropOp34
 70
     1
102
RTVSPost2010Prop35
280
     0
102
RTVSPost2010PropOp35
 70
     1
102
RTVSPost2010Prop36
280
     0
102
RTVSPost2010PropOp36
 70
     1
102
RTVSPost2010Prop37
 90
       50
102
RTVSPost2010PropOp37
 70
     1
102
RTVSPost2010Prop38
140
0.0
102
RTVSPost2010PropOp38
 70
     1
102
RTVSPost2010Prop39
140
1.0
102
RTVSPost2010PropOp39
 70
     1
102
RTVSPost2010Prop40
 90
        0
102
RTVSPost2010PropOp40
 70
     1
102
RTVSPost2010Prop41ColorIndex
 90
       18
102
RTVSPost2010Prop41ColorRGB
 90
        0
102
RTVSPost2010PropOp41
 70
     1
102
RTVSPost2010Prop42
 90
       50
102
RTVSPost2010PropOp42
 70
     1
102
RTVSPost2010Prop43
 90
        3
102
RTVSPost2010PropOp43
 70
     1
102
RTVSPost2010Prop44ColorIndex
 90
        5
102
RTVSPost2010Prop44ColorRGB
 90
      255
102
RTVSPost2010PropOp44
 70
     1
102
RTVSPost2010Prop45
280
     0
102
RTVSPost2010PropOp45
 70
     1
102
RTVSPost2010Prop46
 90
       50
102
RTVSPost2010PropOp46
 70
     1
102
RTVSPost2010Prop47
 90
       50
102
RTVSPost2010PropOp47
 70
     1
102
RTVSPost2010Prop48
 90
       50
102
RTVSPost2010PropOp48
 70
     1
102
RTVSPost2010Prop49
280
     0
102
RTVSPost2010PropOp49
 70
     1
102
RTVSPost2010Prop50
 90
       50
102
RTVSPost2010PropOp50
 70
     1
102
RTVSPost2010Prop51ColorIndex
 90
      256
102
RTVSPost2010Prop51ColorRGB
 90
-16777216
102
RTVSPost2010PropOp51
 70
     0
102
RTVSPost2010Prop52
140
1.0
102
RTVSPost2010PropOp52
 70
     0
102
RTVSPost2010Prop53
 90
        2
102
RTVSPost2010PropOp53
 70
     1
102
RTVSPost2010Prop54
  1
strokes_ogs.tif
102
RTVSPost2010PropOp54
 70
     1
102
RTVSPost2010Prop55
280
     0
102
RTVSPost2010PropOp55
 70
     1
102
RTVSPost2010Prop56
140
1.0
102
RTVSPost2010PropOp56
 70
     1
102
RTVSPost2010Prop57
140
1.0
102
RTVSPost2010PropOp57
 70
     1
  0
XRECORD
  5
24A
102
{ACAD_REACTORS
330
249
102
}
330
249
100
AcDbXrecord
280
     1
102
RTVSPropertyOp0
 70
     1
102
RTVSPropertyOp1
 70
     1
102
RTVSPropertyOp2
 70
     1
102
RTVSPropertyOp3
 70
     1
102
RTVSPropertyOp4
 70
     1
102
RTVSPropertyOp5
 70
     1
102
RTVSPropertyOp6
 70
     1
102
RTVSPropertyOp7
 70
     1
102
RTVSPropertyOp8
 70
     1
102
RTVSPropertyOp9
 70
     1
102
RTVSPropertyOp10
 70
     1
102
RTVSPropertyOp11
 70
     1
102
RTVSPropertyOp12
 70
     1
102
RTVSPropertyOp13
 70
     1
102
RTVSPropertyOp14
 70
     1
102
RTVSPropertyOp15
 70
     1
102
RTVSPropertyOp16
 70
     1
102
RTVSPropertyOp17
 70
     1
102
RTVSPropertyOp18
 70
     1
102
RTVSPropertyOp19
 70
     1
102
RTVSPropertyOp20
 70
     1
102
RTVSPropertyOp21
 70
     1
102
RTVSPropertyOp22
 70
     1
102
RTVSPropertyOp23
 70
     1
102
RTVSPropertyOp24
 70
     1
102
RTVSPropertyOp25
 70
     1
102
RTVSPropertyOp26
 70
     1
102
RTVSPropertyOp27
 70
     1
102
RTVSPropertyOp28
 70
     1
102
RTVSPropertyOp29
 70
     1
102
RTVSPropertyOp30
 70
     1
102
RTVSPropertyOp31
 70
     1
102
RTVSPropertyOp32
 70
     1
102
RTVSPropertyOp33
 70
     1
102
RTVSPropertyOp34
 70
     1
102
RTVSPropertyOp35
 70
     1
102
RTVSPropertyOp36
 70
     1
102
RTVSPropertyOp37
 70
     1
102
RTVSPropertyOp38
 70
     1
102
RTVSPropertyOp39
 70
     1
102
RTVSPropertyOp40
 70
     1
102
RTVSPropertyOp41
 70
     1
102
RTVSPropertyOp42
 70
     1
102
RTVSPropertyOp43
 70
     1
102
RTVSPropertyOp44
 70
     1
102
RTVSPropertyOp45
 70
     1
102
RTVSPropertyOp46
 70
     1
102
RTVSPropertyOp47
 70
     1
102
RTVSPropertyOp48
 70
     1
102
RTVSPropertyOp49
 70
     1
102
RTVSPropertyOp50
 70
     1
102
RTVSPropertyOp51
 70
     0
102
RTVSPropertyOp52
 70
     0
102
RTVSPropertyOp53
 70
     1
102
RTVSPropertyOp54
 70
     1
102
RTVSPropertyOp55
 70
     1
102
RTVSPropertyOp56
 70
     1
102
RTVSPropertyOp57
 70
     1
102
RTVSPost2010Prop28
280
     0
102
RTVSPost2010PropOp28
 70
     1
102
RTVSPost2010Prop29
280
     1
102
RTVSPost2010PropOp29
 70
     1
102
RTVSPost2010Prop30
280
     1
102
RTVSPost2010PropOp30
 70
     1
102
RTVSPost2010Prop31
280
     0
102
RTVSPost2010PropOp31
 70
     1
102
RTVSPost2010Prop32
280
     0
102
RTVSPost2010PropOp32
 70
     1
102
RTVSPost2010Prop33
280
     0
102
RTVSPost2010PropOp33
 70
     1
102
RTVSPost2010Prop34
280
     0
102
RTVSPost2010PropOp34
 70
     1
102
RTVSPost2010Prop35
280
     0
102
RTVSPost2010PropOp35
 70
     1
102
RTVSPost2010Prop36
280
     0
102
RTVSPost2010PropOp36
 70
     1
102
RTVSPost2010Prop37
 90
       50
102
RTVSPost2010PropOp37
 70
     1
102
RTVSPost2010Prop38
140
0.0
102
RTVSPost2010PropOp38
 70
     1
102
RTVSPost2010Prop39
140
1.0
102
RTVSPost2010PropOp39
 70
     1
102
RTVSPost2010Prop40
 90
        0
102
RTVSPost2010PropOp40
 70
     1
102
RTVSPost2010Prop41ColorIndex
 90
       18
102
RTVSPost2010Prop41ColorRGB
 90
        0
102
RTVSPost2010PropOp41
 70
     1
102
RTVSPost2010Prop42
 90
       50
102
RTVSPost2010PropOp42
 70
     1
102
RTVSPost2010Prop43
 90
        3
102
RTVSPost2010PropOp43
 70
     1
102
RTVSPost2010Prop44ColorIndex
 90
        5
102
RTVSPost2010Prop44ColorRGB
 90
      255
102
RTVSPost2010PropOp44
 70
     1
102
RTVSPost2010Prop45
280
     0
102
RTVSPost2010PropOp45
 70
     1
102
RTVSPost2010Prop46
 90
       50
102
RTVSPost2010PropOp46
 70
     1
102
RTVSPost2010Prop47
 90
       50
102
RTVSPost2010PropOp47
 70
     1
102
RTVSPost2010Prop48
 90
       50
102
RTVSPost2010PropOp48
 70
     1
102
RTVSPost2010Prop49
280
     0
102
RTVSPost2010PropOp49
 70
     1
102
RTVSPost2010Prop50
 90
       50
102
RTVSPost2010PropOp50
 70
     1
102
RTVSPost2010Prop51ColorIndex
 90
      256
102
RTVSPost2010Prop51ColorRGB
 90
-16777216
102
RTVSPost2010PropOp51
 70
     0
102
RTVSPost2010Prop52
140
1.0
102
RTVSPost2010PropOp52
 70
     0
102
RTVSPost2010Prop53
 90
        2
102
RTVSPost2010PropOp53
 70
     1
102
RTVSPost2010Prop54
  1
strokes_ogs.tif
102
RTVSPost2010PropOp54
 70
     1
102
RTVSPost2010Prop55
280
     0
102
RTVSPost2010PropOp55
 70
     1
102
RTVSPost2010Prop56
140
1.0
102
RTVSPost2010PropOp56
 70
     1
102
RTVSPost2010Prop57
140
1.0
102
RTVSPost2010PropOp57
 70
     1
  0
ENDSEC
  0
EOF
